ISO-10303-21;
HEADER;
FILE_DESCRIPTION (( 'STEP AP214' ),
    '1' );
FILE_NAME ('àðò. KRT314.STEP',
    '2014-07-01T06:17:50',
    ( '' ),
    ( '' ),
    'SwSTEP 2.0',
    'SolidWorks 2014',
    '' );
FILE_SCHEMA (( 'AUTOMOTIVE_DESIGN' ));
ENDSEC;

DATA;
#1 = ADVANCED_FACE ( 'NONE', ( #28 ), #204, .F. ) ;
#2 = SPHERICAL_SURFACE ( 'NONE', #250, 49.00000000000000000 ) ;
#3 = EDGE_LOOP ( 'NONE', ( #193, #253 ) ) ;
#4 = DIRECTION ( 'NONE',  ( -1.000000000000000000, 0.0000000000000000000, -1.224646799147353200E-016 ) ) ;
#5 = DIRECTION ( 'NONE',  ( -1.000000000000000000, 0.0000000000000000000, 0.0000000000000000000 ) ) ;
#6 = VERTEX_POINT ( 'NONE', #113 ) ;
#7 = DIRECTION ( 'NONE',  ( 1.000000000000000000, 0.0000000000000000000, 0.0000000000000000000 ) ) ;
#8 = CARTESIAN_POINT ( 'NONE',  ( -25.44999999999999900, 0.0000000000000000000, -41.87239544138835600 ) ) ;
#9 = DIRECTION ( 'NONE',  ( -1.000000000000000000, 0.0000000000000000000, 0.0000000000000000000 ) ) ;
#10 = EDGE_LOOP ( 'NONE', ( #227, #68 ) ) ;
#11 = DIRECTION ( 'NONE',  ( -0.0000000000000000000, -0.0000000000000000000, -1.000000000000000000 ) ) ;
#12 = AXIS2_PLACEMENT_3D ( 'NONE', #39, #163, #146 ) ;
#13 = DIRECTION ( 'NONE',  ( -1.000000000000000000, 0.0000000000000000000, 0.0000000000000000000 ) ) ;
#14 = ORIENTED_EDGE ( 'NONE', *, *, #139, .T. ) ;
#15 = DIRECTION ( 'NONE',  ( -1.000000000000000000, 0.0000000000000000000, 0.0000000000000000000 ) ) ;
#16 =( NAMED_UNIT ( * ) PLANE_ANGLE_UNIT ( ) SI_UNIT ( $, .RADIAN. ) );
#17 = DIRECTION ( 'NONE',  ( 1.000000000000000000, 0.0000000000000000000, 0.0000000000000000000 ) ) ;
#18 =( LENGTH_UNIT ( ) NAMED_UNIT ( * ) SI_UNIT ( .MILLI., .METRE. ) );
#19 = CIRCLE ( 'NONE', #196, 25.44999999999999900 ) ;
#20 = VERTEX_POINT ( 'NONE', #32 ) ;
#21 =( NAMED_UNIT ( * ) SI_UNIT ( $, .STERADIAN. ) SOLID_ANGLE_UNIT ( ) );
#22 = AXIS2_PLACEMENT_3D ( 'NONE', #180, #77, #123 ) ;
#23 = CARTESIAN_POINT ( 'NONE',  ( 0.0000000000000000000, 0.0000000000000000000, -41.87239544138835600 ) ) ;
#24 = PRESENTATION_STYLE_ASSIGNMENT (( #203 ) ) ;
#25 = EDGE_LOOP ( 'NONE', ( #46, #60 ) ) ;
#26 = CIRCLE ( 'NONE', #236, 49.00000000000000000 ) ;
#27 = AXIS2_PLACEMENT_3D ( 'NONE', #37, #99, #75 ) ;
#28 = FACE_OUTER_BOUND ( 'NONE', #183, .T. ) ;
#29 = AXIS2_PLACEMENT_3D ( 'NONE', #195, #95, #4 ) ;
#30 = CIRCLE ( 'NONE', #22, 25.44999999999999900 ) ;
#31 = EDGE_LOOP ( 'NONE', ( #173, #115, #94, #188 ) ) ;
#32 = CARTESIAN_POINT ( 'NONE',  ( -25.44999999999999900, 0.0000000000000000000, 43.03832594327990800 ) ) ;
#33 = AXIS2_PLACEMENT_3D ( 'NONE', #179, #182, #15 ) ;
#34 = UNCERTAINTY_MEASURE_WITH_UNIT (LENGTH_MEASURE( 1.000000000000000100E-005 ), #176, 'distance_accuracy_value', 'NONE');
#35 = CARTESIAN_POINT ( 'NONE',  ( 3.000384657911015500E-015, 49.00000000000000000, 0.0000000000000000000 ) ) ;
#36 = AXIS2_PLACEMENT_3D ( 'NONE', #126, #64, #44 ) ;
#37 = CARTESIAN_POINT ( 'NONE',  ( 0.0000000000000000000, 0.0000000000000000000, 41.87239544138835600 ) ) ;
#38 = CIRCLE ( 'NONE', #27, 25.44999999999999900 ) ;
#39 = CARTESIAN_POINT ( 'NONE',  ( 0.0000000000000000000, 0.0000000000000000000, 50.00000000000000000 ) ) ;
#40 = ORIENTED_EDGE ( 'NONE', *, *, #61, .F. ) ;
#41 = CARTESIAN_POINT ( 'NONE',  ( -25.44999999999999900, 0.0000000000000000000, -43.03832594327990800 ) ) ;
#42 = CARTESIAN_POINT ( 'NONE',  ( -25.44999999999999900, 0.0000000000000000000, 50.00000000000000000 ) ) ;
#43 = AXIS2_PLACEMENT_3D ( 'NONE', #268, #205, #269 ) ;
#44 = DIRECTION ( 'NONE',  ( 1.000000000000000000, 0.0000000000000000000, 0.0000000000000000000 ) ) ;
#45 = AXIS2_PLACEMENT_3D ( 'NONE', #142, #160, #5 ) ;
#46 = ORIENTED_EDGE ( 'NONE', *, *, #208, .F. ) ;
#47 = SURFACE_STYLE_FILL_AREA ( #140 ) ;
#48 = CIRCLE ( 'NONE', #29, 50.00000000000000000 ) ;
#49 = ORIENTED_EDGE ( 'NONE', *, *, #257, .T. ) ;
#50 = CARTESIAN_POINT ( 'NONE',  ( 25.44999999999999900, 3.116726103830013900E-015, -41.87239544138835600 ) ) ;
#51 = ADVANCED_FACE ( 'NONE', ( #170, #145 ), #234, .T. ) ;
#52 = CIRCLE ( 'NONE', #255, 25.44999999999999900 ) ;
#53 = DIRECTION ( 'NONE',  ( 0.0000000000000000000, 0.0000000000000000000, -1.000000000000000000 ) ) ;
#54 = ORIENTED_EDGE ( 'NONE', *, *, #232, .F. ) ;
#55 = STYLED_ITEM ( 'NONE', ( #93 ), #81 ) ;
#56 = DIRECTION ( 'NONE',  ( 0.0000000000000000000, 0.0000000000000000000, 1.000000000000000000 ) ) ;
#57 = DIRECTION ( 'NONE',  ( 0.0000000000000000000, 0.0000000000000000000, -1.000000000000000000 ) ) ;
#58 = DIRECTION ( 'NONE',  ( -1.000000000000000000, 0.0000000000000000000, 0.0000000000000000000 ) ) ;
#59 = DIRECTION ( 'NONE',  ( 0.0000000000000000000, 0.0000000000000000000, 1.000000000000000000 ) ) ;
#60 = ORIENTED_EDGE ( 'NONE', *, *, #218, .T. ) ;
#61 = EDGE_CURVE ( 'NONE', #124, #258, #158, .T. ) ;
#62 =( NAMED_UNIT ( * ) SI_UNIT ( $, .STERADIAN. ) SOLID_ANGLE_UNIT ( ) );
#63 = DIRECTION ( 'NONE',  ( 0.0000000000000000000, 0.0000000000000000000, -1.000000000000000000 ) ) ;
#64 = DIRECTION ( 'NONE',  ( 0.0000000000000000000, 0.0000000000000000000, -1.000000000000000000 ) ) ;
#65 = FACE_BOUND ( 'NONE', #231, .T. ) ;
#66 = EDGE_LOOP ( 'NONE', ( #121, #154 ) ) ;
#67 = CIRCLE ( 'NONE', #92, 49.00000000000000000 ) ;
#68 = ORIENTED_EDGE ( 'NONE', *, *, #90, .F. ) ;
#69 =( GEOMETRIC_REPRESENTATION_CONTEXT ( 3 ) GLOBAL_UNCERTAINTY_ASSIGNED_CONTEXT ( ( #157 ) ) GLOBAL_UNIT_ASSIGNED_CONTEXT ( ( #131, #16, #62 ) ) REPRESENTATION_CONTEXT ( 'NONE', 'WORKASPACE' ) );
#70 = ORIENTED_EDGE ( 'NONE', *, *, #118, .T. ) ;
#71 = EDGE_CURVE ( 'NONE', #274, #271, #48, .T. ) ;
#72 = SURFACE_STYLE_USAGE ( .BOTH. , #239 ) ;
#73 = CYLINDRICAL_SURFACE ( 'NONE', #178, 25.44999999999999900 ) ;
#74 = ORIENTED_EDGE ( 'NONE', *, *, #112, .T. ) ;
#75 = DIRECTION ( 'NONE',  ( -1.000000000000000000, 0.0000000000000000000, 0.0000000000000000000 ) ) ;
#76 =( GEOMETRIC_REPRESENTATION_CONTEXT ( 3 ) GLOBAL_UNCERTAINTY_ASSIGNED_CONTEXT ( ( #34 ) ) GLOBAL_UNIT_ASSIGNED_CONTEXT ( ( #176, #237, #159 ) ) REPRESENTATION_CONTEXT ( 'NONE', 'WORKASPACE' ) );
#77 = DIRECTION ( 'NONE',  ( -0.0000000000000000000, -0.0000000000000000000, -1.000000000000000000 ) ) ;
#78 = FACE_OUTER_BOUND ( 'NONE', #129, .T. ) ;
#79 = VERTEX_POINT ( 'NONE', #50 ) ;
#80 = CARTESIAN_POINT ( 'NONE',  ( 0.0000000000000000000, 0.0000000000000000000, -43.03832594327990800 ) ) ;
#81 = MANIFOLD_SOLID_BREP ( 'Âûðåç-Âûòÿíóòü1', #136 ) ;
#82 = PRODUCT_CONTEXT ( 'NONE', #88, 'mechanical' ) ;
#83 = DIRECTION ( 'NONE',  ( 0.0000000000000000000, 0.0000000000000000000, -1.000000000000000000 ) ) ;
#84 = DIRECTION ( 'NONE',  ( 1.000000000000000000, 0.0000000000000000000, 0.0000000000000000000 ) ) ;
#85 = VECTOR ( 'NONE', #119, 1000.000000000000000 ) ;
#86 = ORIENTED_EDGE ( 'NONE', *, *, #148, .F. ) ;
#87 = DIRECTION ( 'NONE',  ( -1.000000000000000000, 0.0000000000000000000, -1.224646799147353200E-016 ) ) ;
#88 = APPLICATION_CONTEXT ( 'automotive_design' ) ;
#89 = ORIENTED_EDGE ( 'NONE', *, *, #270, .T. ) ;
#90 = EDGE_CURVE ( 'NONE', #6, #262, #260, .T. ) ;
#91 = FACE_OUTER_BOUND ( 'NONE', #31, .T. ) ;
#92 = AXIS2_PLACEMENT_3D ( 'NONE', #242, #219, #102 ) ;
#93 = PRESENTATION_STYLE_ASSIGNMENT (( #72 ) ) ;
#94 = ORIENTED_EDGE ( 'NONE', *, *, #112, .F. ) ;
#95 = DIRECTION ( 'NONE',  ( 1.224646799147353200E-016, 0.0000000000000000000, -1.000000000000000000 ) ) ;
#96 = CYLINDRICAL_SURFACE ( 'NONE', #12, 25.44999999999999900 ) ;
#97 = CARTESIAN_POINT ( 'NONE',  ( 25.44999999999999900, 3.116726103830013900E-015, 50.00000000000000000 ) ) ;
#98 = PRODUCT_DEFINITION ( 'UNKNOWN', '', #266, #155 ) ;
#99 = DIRECTION ( 'NONE',  ( 0.0000000000000000000, 0.0000000000000000000, 1.000000000000000000 ) ) ;
#100 = VECTOR ( 'NONE', #53, 1000.000000000000000 ) ;
#101 = ORIENTED_EDGE ( 'NONE', *, *, #71, .T. ) ;
#102 = DIRECTION ( 'NONE',  ( 1.000000000000000000, 0.0000000000000000000, 0.0000000000000000000 ) ) ;
#103 = AXIS2_PLACEMENT_3D ( 'NONE', #202, #147, #166 ) ;
#104 = CARTESIAN_POINT ( 'NONE',  ( 0.0000000000000000000, 0.0000000000000000000, 0.0000000000000000000 ) ) ;
#105 = CARTESIAN_POINT ( 'NONE',  ( 25.44999999999999900, 3.116726103830013900E-015, 50.00000000000000000 ) ) ;
#106 = CIRCLE ( 'NONE', #33, 25.44999999999999900 ) ;
#107 = APPLICATION_PROTOCOL_DEFINITION ( 'draft international standard', 'automotive_design', 1998, #88 ) ;
#108 = VERTEX_POINT ( 'NONE', #8 ) ;
#109 = VERTEX_POINT ( 'NONE', #35 ) ;
#110 = AXIS2_PLACEMENT_3D ( 'NONE', #261, #198, #9 ) ;
#111 = ORIENTED_EDGE ( 'NONE', *, *, #148, .T. ) ;
#112 = EDGE_CURVE ( 'NONE', #177, #258, #52, .T. ) ;
#113 = CARTESIAN_POINT ( 'NONE',  ( 25.44999999999999900, 3.116726103830013900E-015, -43.03832594327990800 ) ) ;
#114 = ADVANCED_FACE ( 'NONE', ( #151 ), #96, .F. ) ;
#115 = ORIENTED_EDGE ( 'NONE', *, *, #61, .T. ) ;
#116 = FILL_AREA_STYLE_COLOUR ( '', #152 ) ;
#117 = PRODUCT ( 'àðò. KRT314', 'àðò. KRT314', '', ( #82 ) ) ;
#118 = EDGE_CURVE ( 'NONE', #124, #20, #106, .T. ) ;
#119 = DIRECTION ( 'NONE',  ( 0.0000000000000000000, 0.0000000000000000000, -1.000000000000000000 ) ) ;
#120 = SPHERICAL_SURFACE ( 'NONE', #103, 50.00000000000000000 ) ;
#121 = ORIENTED_EDGE ( 'NONE', *, *, #218, .F. ) ;
#122 = AXIS2_PLACEMENT_3D ( 'NONE', #184, #226, #272 ) ;
#123 = DIRECTION ( 'NONE',  ( 1.000000000000000000, 0.0000000000000000000, 0.0000000000000000000 ) ) ;
#124 = VERTEX_POINT ( 'NONE', #247 ) ;
#125 = FILL_AREA_STYLE ('',( #149 ) ) ;
#126 = CARTESIAN_POINT ( 'NONE',  ( 0.0000000000000000000, 0.0000000000000000000, 0.0000000000000000000 ) ) ;
#127 = DIRECTION ( 'NONE',  ( -0.0000000000000000000, -0.0000000000000000000, -1.000000000000000000 ) ) ;
#128 = ADVANCED_BREP_SHAPE_REPRESENTATION ( 'ð¨ª. KRT314', ( #81, #122 ), #200 ) ;
#129 = EDGE_LOOP ( 'NONE', ( #164, #101 ) ) ;
#130 = APPLICATION_PROTOCOL_DEFINITION ( 'draft international standard', 'automotive_design', 1998, #224 ) ;
#131 =( LENGTH_UNIT ( ) NAMED_UNIT ( * ) SI_UNIT ( .MILLI., .METRE. ) );
#132 = AXIS2_PLACEMENT_3D ( 'NONE', #214, #175, #7 ) ;
#133 = VERTEX_POINT ( 'NONE', #263 ) ;
#134 = EDGE_CURVE ( 'NONE', #20, #124, #248, .T. ) ;
#135 = VECTOR ( 'NONE', #83, 1000.000000000000000 ) ;
#136 = CLOSED_SHELL ( 'NONE', ( #191, #114, #194, #235, #259, #189, #1, #51 ) ) ;
#137 = FACE_OUTER_BOUND ( 'NONE', #138, .T. ) ;
#138 = EDGE_LOOP ( 'NONE', ( #40, #70, #211, #216 ) ) ;
#139 = EDGE_CURVE ( 'NONE', #258, #177, #38, .T. ) ;
#140 = FILL_AREA_STYLE ('',( #116 ) ) ;
#141 = CIRCLE ( 'NONE', #174, 50.00000000000000000 ) ;
#142 = CARTESIAN_POINT ( 'NONE',  ( 0.0000000000000000000, 0.0000000000000000000, 50.00000000000000000 ) ) ;
#143 = DIRECTION ( 'NONE',  ( -1.000000000000000000, 0.0000000000000000000, 0.0000000000000000000 ) ) ;
#144 = FACE_BOUND ( 'NONE', #213, .T. ) ;
#145 = FACE_BOUND ( 'NONE', #3, .T. ) ;
#146 = DIRECTION ( 'NONE',  ( -1.000000000000000000, 0.0000000000000000000, 0.0000000000000000000 ) ) ;
#147 = DIRECTION ( 'NONE',  ( 0.0000000000000000000, 0.0000000000000000000, -1.000000000000000000 ) ) ;
#148 = EDGE_CURVE ( 'NONE', #108, #79, #30, .T. ) ;
#149 = FILL_AREA_STYLE_COLOUR ( '', #273 ) ;
#150 = CARTESIAN_POINT ( 'NONE',  ( 0.0000000000000000000, 0.0000000000000000000, 0.0000000000000000000 ) ) ;
#151 = FACE_OUTER_BOUND ( 'NONE', #246, .T. ) ;
#152 = COLOUR_RGB ( '',0.7529411764705882200, 0.7529411764705882200, 0.7529411764705882200 ) ;
#153 = FACE_BOUND ( 'NONE', #10, .T. ) ;
#154 = ORIENTED_EDGE ( 'NONE', *, *, #208, .T. ) ;
#155 = PRODUCT_DEFINITION_CONTEXT ( 'detailed design', #224, 'design' ) ;
#156 = MECHANICAL_DESIGN_GEOMETRIC_PRESENTATION_REPRESENTATION (  '', ( #55 ), #76 ) ;
#157 = UNCERTAINTY_MEASURE_WITH_UNIT (LENGTH_MEASURE( 1.000000000000000100E-005 ), #131, 'distance_accuracy_value', 'NONE');
#158 = LINE ( 'NONE', #97, #100 ) ;
#159 =( NAMED_UNIT ( * ) SI_UNIT ( $, .STERADIAN. ) SOLID_ANGLE_UNIT ( ) );
#160 = DIRECTION ( 'NONE',  ( 0.0000000000000000000, 0.0000000000000000000, -1.000000000000000000 ) ) ;
#161 = CARTESIAN_POINT ( 'NONE',  ( 0.0000000000000000000, 0.0000000000000000000, 50.00000000000000000 ) ) ;
#162 = LINE ( 'NONE', #42, #169 ) ;
#163 = DIRECTION ( 'NONE',  ( 0.0000000000000000000, 0.0000000000000000000, -1.000000000000000000 ) ) ;
#164 = ORIENTED_EDGE ( 'NONE', *, *, #186, .F. ) ;
#165 = CARTESIAN_POINT ( 'NONE',  ( 0.0000000000000000000, 0.0000000000000000000, 0.0000000000000000000 ) ) ;
#166 = DIRECTION ( 'NONE',  ( 1.000000000000000000, 0.0000000000000000000, 0.0000000000000000000 ) ) ;
#167 = ORIENTED_EDGE ( 'NONE', *, *, #238, .F. ) ;
#168 =( NAMED_UNIT ( * ) PLANE_ANGLE_UNIT ( ) SI_UNIT ( $, .RADIAN. ) );
#169 = VECTOR ( 'NONE', #63, 1000.000000000000000 ) ;
#170 = FACE_OUTER_BOUND ( 'NONE', #185, .T. ) ;
#171 = PRESENTATION_LAYER_ASSIGNMENT (  '', '', ( #55 ) ) ;
#172 = ORIENTED_EDGE ( 'NONE', *, *, #186, .T. ) ;
#173 = ORIENTED_EDGE ( 'NONE', *, *, #134, .T. ) ;
#174 = AXIS2_PLACEMENT_3D ( 'NONE', #104, #59, #181 ) ;
#175 = DIRECTION ( 'NONE',  ( 0.0000000000000000000, 0.0000000000000000000, -1.000000000000000000 ) ) ;
#176 =( LENGTH_UNIT ( ) NAMED_UNIT ( * ) SI_UNIT ( .MILLI., .METRE. ) );
#177 = VERTEX_POINT ( 'NONE', #265 ) ;
#178 = AXIS2_PLACEMENT_3D ( 'NONE', #161, #57, #13 ) ;
#179 = CARTESIAN_POINT ( 'NONE',  ( 0.0000000000000000000, 0.0000000000000000000, 43.03832594327990800 ) ) ;
#180 = CARTESIAN_POINT ( 'NONE',  ( 0.0000000000000000000, 0.0000000000000000000, -41.87239544138835600 ) ) ;
#181 = DIRECTION ( 'NONE',  ( 1.000000000000000000, 0.0000000000000000000, 0.0000000000000000000 ) ) ;
#182 = DIRECTION ( 'NONE',  ( 0.0000000000000000000, 0.0000000000000000000, 1.000000000000000000 ) ) ;
#183 = EDGE_LOOP ( 'NONE', ( #167, #86, #49, #89 ) ) ;
#184 = CARTESIAN_POINT ( 'NONE',  ( 0.0000000000000000000, 0.0000000000000000000, 0.0000000000000000000 ) ) ;
#185 = EDGE_LOOP ( 'NONE', ( #199, #172 ) ) ;
#186 = EDGE_CURVE ( 'NONE', #274, #271, #141, .T. ) ;
#187 = AXIS2_PLACEMENT_3D ( 'NONE', #80, #11, #215 ) ;
#188 = ORIENTED_EDGE ( 'NONE', *, *, #228, .F. ) ;
#189 = ADVANCED_FACE ( 'NONE', ( #137 ), #244, .F. ) ;
#190 = LINE ( 'NONE', #201, #85 ) ;
#191 = ADVANCED_FACE ( 'NONE', ( #153, #78 ), #120, .T. ) ;
#192 = LINE ( 'NONE', #105, #135 ) ;
#193 = ORIENTED_EDGE ( 'NONE', *, *, #134, .F. ) ;
#194 = ADVANCED_FACE ( 'NONE', ( #91 ), #73, .F. ) ;
#195 = CARTESIAN_POINT ( 'NONE',  ( 0.0000000000000000000, 0.0000000000000000000, 0.0000000000000000000 ) ) ;
#196 = AXIS2_PLACEMENT_3D ( 'NONE', #23, #127, #17 ) ;
#197 = CARTESIAN_POINT ( 'NONE',  ( 0.0000000000000000000, 0.0000000000000000000, 43.03832594327990800 ) ) ;
#198 = DIRECTION ( 'NONE',  ( 0.0000000000000000000, 0.0000000000000000000, -1.000000000000000000 ) ) ;
#199 = ORIENTED_EDGE ( 'NONE', *, *, #71, .F. ) ;
#200 =( GEOMETRIC_REPRESENTATION_CONTEXT ( 3 ) GLOBAL_UNCERTAINTY_ASSIGNED_CONTEXT ( ( #254 ) ) GLOBAL_UNIT_ASSIGNED_CONTEXT ( ( #18, #168, #21 ) ) REPRESENTATION_CONTEXT ( 'NONE', 'WORKASPACE' ) );
#201 = CARTESIAN_POINT ( 'NONE',  ( -25.44999999999999900, 0.0000000000000000000, 50.00000000000000000 ) ) ;
#202 = CARTESIAN_POINT ( 'NONE',  ( 0.0000000000000000000, 0.0000000000000000000, 0.0000000000000000000 ) ) ;
#203 = SURFACE_STYLE_USAGE ( .BOTH. , #225 ) ;
#204 = CYLINDRICAL_SURFACE ( 'NONE', #45, 25.44999999999999900 ) ;
#205 = DIRECTION ( 'NONE',  ( -0.0000000000000000000, -0.0000000000000000000, -1.000000000000000000 ) ) ;
#206 = ORIENTED_EDGE ( 'NONE', *, *, #90, .T. ) ;
#207 = AXIS2_PLACEMENT_3D ( 'NONE', #197, #56, #143 ) ;
#208 = EDGE_CURVE ( 'NONE', #133, #109, #67, .T. ) ;
#209 = SHAPE_DEFINITION_REPRESENTATION ( #256, #128 ) ;
#210 = FACE_OUTER_BOUND ( 'NONE', #66, .T. ) ;
#211 = ORIENTED_EDGE ( 'NONE', *, *, #228, .T. ) ;
#212 = STYLED_ITEM ( 'NONE', ( #24 ), #128 ) ;
#213 = EDGE_LOOP ( 'NONE', ( #111, #230 ) ) ;
#214 = CARTESIAN_POINT ( 'NONE',  ( 0.0000000000000000000, 0.0000000000000000000, 0.0000000000000000000 ) ) ;
#215 = DIRECTION ( 'NONE',  ( 1.000000000000000000, 0.0000000000000000000, 0.0000000000000000000 ) ) ;
#216 = ORIENTED_EDGE ( 'NONE', *, *, #139, .F. ) ;
#217 = CARTESIAN_POINT ( 'NONE',  ( 0.0000000000000000000, 0.0000000000000000000, 41.87239544138835600 ) ) ;
#218 = EDGE_CURVE ( 'NONE', #133, #109, #26, .T. ) ;
#219 = DIRECTION ( 'NONE',  ( 0.0000000000000000000, 0.0000000000000000000, 1.000000000000000000 ) ) ;
#220 = CIRCLE ( 'NONE', #43, 25.44999999999999900 ) ;
#221 = ORIENTED_EDGE ( 'NONE', *, *, #238, .T. ) ;
#222 = PRODUCT_RELATED_PRODUCT_CATEGORY ( 'part', '', ( #117 ) ) ;
#223 = CARTESIAN_POINT ( 'NONE',  ( 3.061616997868383000E-015, -50.00000000000000000, 0.0000000000000000000 ) ) ;
#224 = APPLICATION_CONTEXT ( 'automotive_design' ) ;
#225 = SURFACE_SIDE_STYLE ('',( #233 ) ) ;
#226 = DIRECTION ( 'NONE',  ( 0.0000000000000000000, 0.0000000000000000000, 1.000000000000000000 ) ) ;
#227 = ORIENTED_EDGE ( 'NONE', *, *, #270, .F. ) ;
#228 = EDGE_CURVE ( 'NONE', #20, #177, #190, .T. ) ;
#229 = PRESENTATION_LAYER_ASSIGNMENT (  '', '', ( #212 ) ) ;
#230 = ORIENTED_EDGE ( 'NONE', *, *, #232, .T. ) ;
#231 = EDGE_LOOP ( 'NONE', ( #74, #14 ) ) ;
#232 = EDGE_CURVE ( 'NONE', #79, #108, #19, .T. ) ;
#233 = SURFACE_STYLE_FILL_AREA ( #125 ) ;
#234 = SPHERICAL_SURFACE ( 'NONE', #132, 50.00000000000000000 ) ;
#235 = ADVANCED_FACE ( 'NONE', ( #65, #240 ), #252, .F. ) ;
#236 = AXIS2_PLACEMENT_3D ( 'NONE', #165, #264, #87 ) ;
#237 =( NAMED_UNIT ( * ) PLANE_ANGLE_UNIT ( ) SI_UNIT ( $, .RADIAN. ) );
#238 = EDGE_CURVE ( 'NONE', #79, #6, #192, .T. ) ;
#239 = SURFACE_SIDE_STYLE ('',( #47 ) ) ;
#240 = FACE_OUTER_BOUND ( 'NONE', #25, .T. ) ;
#241 = ORIENTED_EDGE ( 'NONE', *, *, #257, .F. ) ;
#242 = CARTESIAN_POINT ( 'NONE',  ( 0.0000000000000000000, 0.0000000000000000000, 0.0000000000000000000 ) ) ;
#243 = DIRECTION ( 'NONE',  ( 0.0000000000000000000, 0.0000000000000000000, 1.000000000000000000 ) ) ;
#244 = CYLINDRICAL_SURFACE ( 'NONE', #110, 25.44999999999999900 ) ;
#245 = MECHANICAL_DESIGN_GEOMETRIC_PRESENTATION_REPRESENTATION (  '', ( #212 ), #69 ) ;
#246 = EDGE_LOOP ( 'NONE', ( #54, #221, #206, #241 ) ) ;
#247 = CARTESIAN_POINT ( 'NONE',  ( 25.44999999999999900, 3.116726103830013900E-015, 43.03832594327990800 ) ) ;
#248 = CIRCLE ( 'NONE', #207, 25.44999999999999900 ) ;
#249 = CARTESIAN_POINT ( 'NONE',  ( 25.44999999999999900, 3.116726103830013900E-015, 41.87239544138835600 ) ) ;
#250 = AXIS2_PLACEMENT_3D ( 'NONE', #150, #251, #84 ) ;
#251 = DIRECTION ( 'NONE',  ( 0.0000000000000000000, 0.0000000000000000000, -1.000000000000000000 ) ) ;
#252 = SPHERICAL_SURFACE ( 'NONE', #36, 49.00000000000000000 ) ;
#253 = ORIENTED_EDGE ( 'NONE', *, *, #118, .F. ) ;
#254 = UNCERTAINTY_MEASURE_WITH_UNIT (LENGTH_MEASURE( 1.000000000000000100E-005 ), #18, 'distance_accuracy_value', 'NONE');
#255 = AXIS2_PLACEMENT_3D ( 'NONE', #217, #243, #58 ) ;
#256 = PRODUCT_DEFINITION_SHAPE ( 'NONE', 'NONE',  #98 ) ;
#257 = EDGE_CURVE ( 'NONE', #108, #262, #162, .T. ) ;
#258 = VERTEX_POINT ( 'NONE', #249 ) ;
#259 = ADVANCED_FACE ( 'NONE', ( #210, #144 ), #2, .F. ) ;
#260 = CIRCLE ( 'NONE', #187, 25.44999999999999900 ) ;
#261 = CARTESIAN_POINT ( 'NONE',  ( 0.0000000000000000000, 0.0000000000000000000, 50.00000000000000000 ) ) ;
#262 = VERTEX_POINT ( 'NONE', #41 ) ;
#263 = CARTESIAN_POINT ( 'NONE',  ( 3.000384657911015500E-015, -49.00000000000000000, 0.0000000000000000000 ) ) ;
#264 = DIRECTION ( 'NONE',  ( 1.224646799147353200E-016, 0.0000000000000000000, -1.000000000000000000 ) ) ;
#265 = CARTESIAN_POINT ( 'NONE',  ( -25.44999999999999900, 0.0000000000000000000, 41.87239544138835600 ) ) ;
#266 = PRODUCT_DEFINITION_FORMATION_WITH_SPECIFIED_SOURCE ( 'ANY', '', #117, .NOT_KNOWN. ) ;
#267 = CARTESIAN_POINT ( 'NONE',  ( 3.061616997868383000E-015, 50.00000000000000000, 0.0000000000000000000 ) ) ;
#268 = CARTESIAN_POINT ( 'NONE',  ( 0.0000000000000000000, 0.0000000000000000000, -43.03832594327990800 ) ) ;
#269 = DIRECTION ( 'NONE',  ( 1.000000000000000000, 0.0000000000000000000, 0.0000000000000000000 ) ) ;
#270 = EDGE_CURVE ( 'NONE', #262, #6, #220, .T. ) ;
#271 = VERTEX_POINT ( 'NONE', #267 ) ;
#272 = DIRECTION ( 'NONE',  ( 1.000000000000000000, 0.0000000000000000000, 0.0000000000000000000 ) ) ;
#273 = COLOUR_RGB ( '',0.7529411764705882200, 0.7529411764705882200, 0.7529411764705882200 ) ;
#274 = VERTEX_POINT ( 'NONE', #223 ) ;
ENDSEC;
END-ISO-10303-21;
