ISO-10303-21;
HEADER;
FILE_DESCRIPTION (( 'STEP AP214' ),
    '1' );
FILE_NAME ('àðò. KRT316.STEP',
    '2014-07-01T05:48:59',
    ( '' ),
    ( '' ),
    'SwSTEP 2.0',
    'SolidWorks 2014',
    '' );
FILE_SCHEMA (( 'AUTOMOTIVE_DESIGN' ));
ENDSEC;

DATA;
#1 = SURFACE_STYLE_FILL_AREA ( #81 ) ;
#2 = ADVANCED_FACE ( 'NONE', ( #52, #67 ), #176, .T. ) ;
#3 = CARTESIAN_POINT ( 'NONE',  ( 0.0000000000000000000, 0.0000000000000000000, 0.0000000000000000000 ) ) ;
#4 = CARTESIAN_POINT ( 'NONE',  ( 3.000384657911015500E-015, -49.00000000000000000, 0.0000000000000000000 ) ) ;
#5 =( NAMED_UNIT ( * ) SI_UNIT ( $, .STERADIAN. ) SOLID_ANGLE_UNIT ( ) );
#6 = CARTESIAN_POINT ( 'NONE',  ( 0.0000000000000000000, 0.0000000000000000000, 0.0000000000000000000 ) ) ;
#7 = DIRECTION ( 'NONE',  ( 0.0000000000000000000, 0.0000000000000000000, -1.000000000000000000 ) ) ;
#8 = PRODUCT_DEFINITION_FORMATION_WITH_SPECIFIED_SOURCE ( 'ANY', '', #50, .NOT_KNOWN. ) ;
#9 =( NAMED_UNIT ( * ) PLANE_ANGLE_UNIT ( ) SI_UNIT ( $, .RADIAN. ) );
#10 = SPHERICAL_SURFACE ( 'NONE', #43, 49.00000000000000000 ) ;
#11 = AXIS2_PLACEMENT_3D ( 'NONE', #132, #185, #103 ) ;
#12 = CIRCLE ( 'NONE', #30, 50.00000000000000000 ) ;
#13 = CIRCLE ( 'NONE', #154, 50.00000000000000000 ) ;
#14 = ORIENTED_EDGE ( 'NONE', *, *, #143, .F. ) ;
#15 = CARTESIAN_POINT ( 'NONE',  ( 3.061616997868383000E-015, -50.00000000000000000, 0.0000000000000000000 ) ) ;
#16 = DIRECTION ( 'NONE',  ( -1.000000000000000000, 0.0000000000000000000, -1.224646799147353200E-016 ) ) ;
#17 = VECTOR ( 'NONE', #172, 1000.000000000000000 ) ;
#18 = DIRECTION ( 'NONE',  ( -1.000000000000000000, 0.0000000000000000000, 0.0000000000000000000 ) ) ;
#19 = CARTESIAN_POINT ( 'NONE',  ( 25.44999999999999900, 3.116726103830013900E-015, 41.87239544138835600 ) ) ;
#20 = FACE_OUTER_BOUND ( 'NONE', #117, .T. ) ;
#21 = ORIENTED_EDGE ( 'NONE', *, *, #122, .T. ) ;
#22 = CARTESIAN_POINT ( 'NONE',  ( 0.0000000000000000000, 0.0000000000000000000, 41.87239544138835600 ) ) ;
#23 = ADVANCED_FACE ( 'NONE', ( #127 ), #61, .F. ) ;
#24 = CARTESIAN_POINT ( 'NONE',  ( 25.44999999999999900, 3.116726103830013900E-015, 50.00000000000000000 ) ) ;
#25 = ADVANCED_FACE ( 'NONE', ( #97 ), #112, .T. ) ;
#26 = CIRCLE ( 'NONE', #110, 25.44999999999999900 ) ;
#27 = FILL_AREA_STYLE ('',( #131 ) ) ;
#28 = SURFACE_SIDE_STYLE ('',( #1 ) ) ;
#29 = DIRECTION ( 'NONE',  ( 1.000000000000000000, 0.0000000000000000000, 0.0000000000000000000 ) ) ;
#30 = AXIS2_PLACEMENT_3D ( 'NONE', #175, #106, #190 ) ;
#31 = CLOSED_SHELL ( 'NONE', ( #153, #136, #25, #2, #23, #65 ) ) ;
#32 = ORIENTED_EDGE ( 'NONE', *, *, #125, .T. ) ;
#33 =( NAMED_UNIT ( * ) PLANE_ANGLE_UNIT ( ) SI_UNIT ( $, .RADIAN. ) );
#34 = DIRECTION ( 'NONE',  ( 0.0000000000000000000, 0.0000000000000000000, 1.000000000000000000 ) ) ;
#35 = DIRECTION ( 'NONE',  ( 0.0000000000000000000, 0.0000000000000000000, -1.000000000000000000 ) ) ;
#36 = CIRCLE ( 'NONE', #168, 25.44999999999999900 ) ;
#37 = ORIENTED_EDGE ( 'NONE', *, *, #192, .F. ) ;
#38 = ORIENTED_EDGE ( 'NONE', *, *, #60, .T. ) ;
#39 = DIRECTION ( 'NONE',  ( 0.0000000000000000000, 0.0000000000000000000, -1.000000000000000000 ) ) ;
#40 = CARTESIAN_POINT ( 'NONE',  ( 0.0000000000000000000, 0.0000000000000000000, 0.0000000000000000000 ) ) ;
#41 = ORIENTED_EDGE ( 'NONE', *, *, #143, .T. ) ;
#42 = ORIENTED_EDGE ( 'NONE', *, *, #101, .T. ) ;
#43 = AXIS2_PLACEMENT_3D ( 'NONE', #123, #39, #29 ) ;
#44 = PRODUCT_RELATED_PRODUCT_CATEGORY ( 'part', '', ( #50 ) ) ;
#45 = PRESENTATION_STYLE_ASSIGNMENT (( #189 ) ) ;
#46 = DIRECTION ( 'NONE',  ( -1.000000000000000000, 0.0000000000000000000, 0.0000000000000000000 ) ) ;
#47 = ORIENTED_EDGE ( 'NONE', *, *, #60, .F. ) ;
#48 = AXIS2_PLACEMENT_3D ( 'NONE', #3, #156, #64 ) ;
#49 = DIRECTION ( 'NONE',  ( 1.000000000000000000, 0.0000000000000000000, 0.0000000000000000000 ) ) ;
#50 = PRODUCT ( 'àðò. KRT316', 'àðò. KRT316', '', ( #84 ) ) ;
#51 = STYLED_ITEM ( 'NONE', ( #45 ), #54 ) ;
#52 = FACE_OUTER_BOUND ( 'NONE', #58, .T. ) ;
#53 = COLOUR_RGB ( '',0.7529411764705882200, 0.7529411764705882200, 0.7529411764705882200 ) ;
#54 = MANIFOLD_SOLID_BREP ( 'Âûðåç-Âûòÿíóòü1', #31 ) ;
#55 = CIRCLE ( 'NONE', #91, 25.44999999999999900 ) ;
#56 = CARTESIAN_POINT ( 'NONE',  ( 0.0000000000000000000, 0.0000000000000000000, 43.03832594327990800 ) ) ;
#57 = CARTESIAN_POINT ( 'NONE',  ( 3.000384657911015500E-015, 49.00000000000000000, 0.0000000000000000000 ) ) ;
#58 = EDGE_LOOP ( 'NONE', ( #14, #38 ) ) ;
#59 = CARTESIAN_POINT ( 'NONE',  ( -25.44999999999999900, 0.0000000000000000000, 43.03832594327990800 ) ) ;
#60 = EDGE_CURVE ( 'NONE', #198, #89, #12, .T. ) ;
#61 = CYLINDRICAL_SURFACE ( 'NONE', #179, 25.44999999999999900 ) ;
#62 = AXIS2_PLACEMENT_3D ( 'NONE', #99, #35, #165 ) ;
#63 = ORIENTED_EDGE ( 'NONE', *, *, #109, .T. ) ;
#64 = DIRECTION ( 'NONE',  ( 1.000000000000000000, 0.0000000000000000000, 0.0000000000000000000 ) ) ;
#65 = ADVANCED_FACE ( 'NONE', ( #20 ), #10, .F. ) ;
#66 = LINE ( 'NONE', #24, #108 ) ;
#67 = FACE_BOUND ( 'NONE', #170, .T. ) ;
#68 = DIRECTION ( 'NONE',  ( 1.000000000000000000, 0.0000000000000000000, 0.0000000000000000000 ) ) ;
#69 = AXIS2_PLACEMENT_3D ( 'NONE', #40, #140, #49 ) ;
#70 = ORIENTED_EDGE ( 'NONE', *, *, #94, .T. ) ;
#71 = CARTESIAN_POINT ( 'NONE',  ( 0.0000000000000000000, 0.0000000000000000000, 0.0000000000000000000 ) ) ;
#72 = FACE_BOUND ( 'NONE', #188, .T. ) ;
#73 = EDGE_CURVE ( 'NONE', #77, #128, #55, .T. ) ;
#74 = ORIENTED_EDGE ( 'NONE', *, *, #73, .T. ) ;
#75 = ADVANCED_BREP_SHAPE_REPRESENTATION ( 'ð¨ª. KRT316', ( #54, #48 ), #191 ) ;
#76 = CARTESIAN_POINT ( 'NONE',  ( -25.44999999999999900, 0.0000000000000000000, 41.87239544138835600 ) ) ;
#77 = VERTEX_POINT ( 'NONE', #59 ) ;
#78 =( NAMED_UNIT ( * ) PLANE_ANGLE_UNIT ( ) SI_UNIT ( $, .RADIAN. ) );
#79 = VERTEX_POINT ( 'NONE', #76 ) ;
#80 = CARTESIAN_POINT ( 'NONE',  ( 0.0000000000000000000, 0.0000000000000000000, 50.00000000000000000 ) ) ;
#81 = FILL_AREA_STYLE ('',( #152 ) ) ;
#82 = CIRCLE ( 'NONE', #196, 49.00000000000000000 ) ;
#83 = EDGE_LOOP ( 'NONE', ( #74, #63, #37, #162 ) ) ;
#84 = PRODUCT_CONTEXT ( 'NONE', #100, 'mechanical' ) ;
#85 = SPHERICAL_SURFACE ( 'NONE', #62, 49.00000000000000000 ) ;
#86 = STYLED_ITEM ( 'NONE', ( #120 ), #75 ) ;
#87 = APPLICATION_CONTEXT ( 'automotive_design' ) ;
#88 = SURFACE_STYLE_FILL_AREA ( #27 ) ;
#89 = VERTEX_POINT ( 'NONE', #130 ) ;
#90 = DIRECTION ( 'NONE',  ( 0.0000000000000000000, 0.0000000000000000000, -1.000000000000000000 ) ) ;
#91 = AXIS2_PLACEMENT_3D ( 'NONE', #139, #159, #18 ) ;
#92 = CARTESIAN_POINT ( 'NONE',  ( 0.0000000000000000000, 0.0000000000000000000, 0.0000000000000000000 ) ) ;
#93 = DIRECTION ( 'NONE',  ( 1.224646799147353200E-016, 0.0000000000000000000, -1.000000000000000000 ) ) ;
#94 = EDGE_CURVE ( 'NONE', #144, #79, #36, .T. ) ;
#95 = PRODUCT_DEFINITION ( 'UNKNOWN', '', #8, #114 ) ;
#96 = UNCERTAINTY_MEASURE_WITH_UNIT (LENGTH_MEASURE( 1.000000000000000100E-005 ), #174, 'distance_accuracy_value', 'NONE');
#97 = FACE_OUTER_BOUND ( 'NONE', #193, .T. ) ;
#98 = ORIENTED_EDGE ( 'NONE', *, *, #109, .F. ) ;
#99 = CARTESIAN_POINT ( 'NONE',  ( 0.0000000000000000000, 0.0000000000000000000, 0.0000000000000000000 ) ) ;
#100 = APPLICATION_CONTEXT ( 'automotive_design' ) ;
#101 = EDGE_CURVE ( 'NONE', #113, #124, #161, .T. ) ;
#102 = COLOUR_RGB ( '',0.7529411764705882200, 0.7529411764705882200, 0.7529411764705882200 ) ;
#103 = DIRECTION ( 'NONE',  ( -1.000000000000000000, 0.0000000000000000000, 0.0000000000000000000 ) ) ;
#104 = DIRECTION ( 'NONE',  ( 1.000000000000000000, 0.0000000000000000000, 0.0000000000000000000 ) ) ;
#105 = ORIENTED_EDGE ( 'NONE', *, *, #101, .F. ) ;
#106 = DIRECTION ( 'NONE',  ( 0.0000000000000000000, 0.0000000000000000000, 1.000000000000000000 ) ) ;
#107 = AXIS2_PLACEMENT_3D ( 'NONE', #92, #93, #151 ) ;
#108 = VECTOR ( 'NONE', #118, 1000.000000000000000 ) ;
#109 = EDGE_CURVE ( 'NONE', #128, #144, #66, .T. ) ;
#110 = AXIS2_PLACEMENT_3D ( 'NONE', #184, #34, #166 ) ;
#111 = EDGE_LOOP ( 'NONE', ( #98, #32, #21, #183 ) ) ;
#112 = SPHERICAL_SURFACE ( 'NONE', #69, 50.00000000000000000 ) ;
#113 = VERTEX_POINT ( 'NONE', #4 ) ;
#114 = PRODUCT_DEFINITION_CONTEXT ( 'detailed design', #87, 'design' ) ;
#115 = CARTESIAN_POINT ( 'NONE',  ( 25.44999999999999900, 3.116726103830013900E-015, 43.03832594327990800 ) ) ;
#116 = FACE_OUTER_BOUND ( 'NONE', #83, .T. ) ;
#117 = EDGE_LOOP ( 'NONE', ( #105, #180 ) ) ;
#118 = DIRECTION ( 'NONE',  ( 0.0000000000000000000, 0.0000000000000000000, -1.000000000000000000 ) ) ;
#119 = SHAPE_DEFINITION_REPRESENTATION ( #142, #75 ) ;
#120 = PRESENTATION_STYLE_ASSIGNMENT (( #186 ) ) ;
#121 =( NAMED_UNIT ( * ) SI_UNIT ( $, .STERADIAN. ) SOLID_ANGLE_UNIT ( ) );
#122 = EDGE_CURVE ( 'NONE', #77, #79, #197, .T. ) ;
#123 = CARTESIAN_POINT ( 'NONE',  ( 0.0000000000000000000, 0.0000000000000000000, 0.0000000000000000000 ) ) ;
#124 = VERTEX_POINT ( 'NONE', #57 ) ;
#125 = EDGE_CURVE ( 'NONE', #128, #77, #187, .T. ) ;
#126 = UNCERTAINTY_MEASURE_WITH_UNIT (LENGTH_MEASURE( 1.000000000000000100E-005 ), #177, 'distance_accuracy_value', 'NONE');
#127 = FACE_OUTER_BOUND ( 'NONE', #111, .T. ) ;
#128 = VERTEX_POINT ( 'NONE', #115 ) ;
#129 = DIRECTION ( 'NONE',  ( 0.0000000000000000000, 0.0000000000000000000, 1.000000000000000000 ) ) ;
#130 = CARTESIAN_POINT ( 'NONE',  ( 3.061616997868383000E-015, 50.00000000000000000, 0.0000000000000000000 ) ) ;
#131 = FILL_AREA_STYLE_COLOUR ( '', #102 ) ;
#132 = CARTESIAN_POINT ( 'NONE',  ( 0.0000000000000000000, 0.0000000000000000000, 50.00000000000000000 ) ) ;
#133 = PRESENTATION_LAYER_ASSIGNMENT (  '', '', ( #51 ) ) ;
#134 = DIRECTION ( 'NONE',  ( 0.0000000000000000000, 0.0000000000000000000, 1.000000000000000000 ) ) ;
#135 = MECHANICAL_DESIGN_GEOMETRIC_PRESENTATION_REPRESENTATION (  '', ( #86 ), #163 ) ;
#136 = ADVANCED_FACE ( 'NONE', ( #116 ), #157, .F. ) ;
#137 = CARTESIAN_POINT ( 'NONE',  ( -25.44999999999999900, 0.0000000000000000000, 50.00000000000000000 ) ) ;
#138 = ORIENTED_EDGE ( 'NONE', *, *, #149, .F. ) ;
#139 = CARTESIAN_POINT ( 'NONE',  ( 0.0000000000000000000, 0.0000000000000000000, 43.03832594327990800 ) ) ;
#140 = DIRECTION ( 'NONE',  ( 0.0000000000000000000, 0.0000000000000000000, -1.000000000000000000 ) ) ;
#141 = ORIENTED_EDGE ( 'NONE', *, *, #192, .T. ) ;
#142 = PRODUCT_DEFINITION_SHAPE ( 'NONE', 'NONE',  #95 ) ;
#143 = EDGE_CURVE ( 'NONE', #198, #89, #13, .T. ) ;
#144 = VERTEX_POINT ( 'NONE', #19 ) ;
#145 = AXIS2_PLACEMENT_3D ( 'NONE', #56, #167, #200 ) ;
#146 = ORIENTED_EDGE ( 'NONE', *, *, #125, .F. ) ;
#147 =( NAMED_UNIT ( * ) SI_UNIT ( $, .STERADIAN. ) SOLID_ANGLE_UNIT ( ) );
#148 = CARTESIAN_POINT ( 'NONE',  ( 0.0000000000000000000, 0.0000000000000000000, 0.0000000000000000000 ) ) ;
#149 = EDGE_CURVE ( 'NONE', #113, #124, #82, .T. ) ;
#150 = ORIENTED_EDGE ( 'NONE', *, *, #73, .F. ) ;
#151 = DIRECTION ( 'NONE',  ( -1.000000000000000000, 0.0000000000000000000, -1.224646799147353200E-016 ) ) ;
#152 = FILL_AREA_STYLE_COLOUR ( '', #53 ) ;
#153 = ADVANCED_FACE ( 'NONE', ( #72, #169 ), #85, .F. ) ;
#154 = AXIS2_PLACEMENT_3D ( 'NONE', #71, #199, #16 ) ;
#155 = DIRECTION ( 'NONE',  ( -1.000000000000000000, 0.0000000000000000000, 0.0000000000000000000 ) ) ;
#156 = DIRECTION ( 'NONE',  ( 0.0000000000000000000, 0.0000000000000000000, 1.000000000000000000 ) ) ;
#157 = CYLINDRICAL_SURFACE ( 'NONE', #11, 25.44999999999999900 ) ;
#158 = AXIS2_PLACEMENT_3D ( 'NONE', #6, #7, #104 ) ;
#159 = DIRECTION ( 'NONE',  ( 0.0000000000000000000, 0.0000000000000000000, 1.000000000000000000 ) ) ;
#160 = MECHANICAL_DESIGN_GEOMETRIC_PRESENTATION_REPRESENTATION (  '', ( #51 ), #171 ) ;
#161 = CIRCLE ( 'NONE', #107, 49.00000000000000000 ) ;
#162 = ORIENTED_EDGE ( 'NONE', *, *, #122, .F. ) ;
#163 =( GEOMETRIC_REPRESENTATION_CONTEXT ( 3 ) GLOBAL_UNCERTAINTY_ASSIGNED_CONTEXT ( ( #96 ) ) GLOBAL_UNIT_ASSIGNED_CONTEXT ( ( #174, #78, #5 ) ) REPRESENTATION_CONTEXT ( 'NONE', 'WORKASPACE' ) );
#164 = UNCERTAINTY_MEASURE_WITH_UNIT (LENGTH_MEASURE( 1.000000000000000100E-005 ), #181, 'distance_accuracy_value', 'NONE');
#165 = DIRECTION ( 'NONE',  ( 1.000000000000000000, 0.0000000000000000000, 0.0000000000000000000 ) ) ;
#166 = DIRECTION ( 'NONE',  ( -1.000000000000000000, 0.0000000000000000000, 0.0000000000000000000 ) ) ;
#167 = DIRECTION ( 'NONE',  ( 0.0000000000000000000, 0.0000000000000000000, 1.000000000000000000 ) ) ;
#168 = AXIS2_PLACEMENT_3D ( 'NONE', #22, #134, #155 ) ;
#169 = FACE_OUTER_BOUND ( 'NONE', #195, .T. ) ;
#170 = EDGE_LOOP ( 'NONE', ( #150, #146 ) ) ;
#171 =( GEOMETRIC_REPRESENTATION_CONTEXT ( 3 ) GLOBAL_UNCERTAINTY_ASSIGNED_CONTEXT ( ( #126 ) ) GLOBAL_UNIT_ASSIGNED_CONTEXT ( ( #177, #9, #121 ) ) REPRESENTATION_CONTEXT ( 'NONE', 'WORKASPACE' ) );
#172 = DIRECTION ( 'NONE',  ( 0.0000000000000000000, 0.0000000000000000000, -1.000000000000000000 ) ) ;
#173 = SURFACE_SIDE_STYLE ('',( #88 ) ) ;
#174 =( LENGTH_UNIT ( ) NAMED_UNIT ( * ) SI_UNIT ( .MILLI., .METRE. ) );
#175 = CARTESIAN_POINT ( 'NONE',  ( 0.0000000000000000000, 0.0000000000000000000, 0.0000000000000000000 ) ) ;
#176 = SPHERICAL_SURFACE ( 'NONE', #158, 50.00000000000000000 ) ;
#177 =( LENGTH_UNIT ( ) NAMED_UNIT ( * ) SI_UNIT ( .MILLI., .METRE. ) );
#178 = APPLICATION_PROTOCOL_DEFINITION ( 'draft international standard', 'automotive_design', 1998, #100 ) ;
#179 = AXIS2_PLACEMENT_3D ( 'NONE', #80, #90, #46 ) ;
#180 = ORIENTED_EDGE ( 'NONE', *, *, #149, .T. ) ;
#181 =( LENGTH_UNIT ( ) NAMED_UNIT ( * ) SI_UNIT ( .MILLI., .METRE. ) );
#182 = PRESENTATION_LAYER_ASSIGNMENT (  '', '', ( #86 ) ) ;
#183 = ORIENTED_EDGE ( 'NONE', *, *, #94, .F. ) ;
#184 = CARTESIAN_POINT ( 'NONE',  ( 0.0000000000000000000, 0.0000000000000000000, 41.87239544138835600 ) ) ;
#185 = DIRECTION ( 'NONE',  ( 0.0000000000000000000, 0.0000000000000000000, -1.000000000000000000 ) ) ;
#186 = SURFACE_STYLE_USAGE ( .BOTH. , #173 ) ;
#187 = CIRCLE ( 'NONE', #145, 25.44999999999999900 ) ;
#188 = EDGE_LOOP ( 'NONE', ( #141, #70 ) ) ;
#189 = SURFACE_STYLE_USAGE ( .BOTH. , #28 ) ;
#190 = DIRECTION ( 'NONE',  ( 1.000000000000000000, 0.0000000000000000000, 0.0000000000000000000 ) ) ;
#191 =( GEOMETRIC_REPRESENTATION_CONTEXT ( 3 ) GLOBAL_UNCERTAINTY_ASSIGNED_CONTEXT ( ( #164 ) ) GLOBAL_UNIT_ASSIGNED_CONTEXT ( ( #181, #33, #147 ) ) REPRESENTATION_CONTEXT ( 'NONE', 'WORKASPACE' ) );
#192 = EDGE_CURVE ( 'NONE', #79, #144, #26, .T. ) ;
#193 = EDGE_LOOP ( 'NONE', ( #47, #41 ) ) ;
#194 = APPLICATION_PROTOCOL_DEFINITION ( 'draft international standard', 'automotive_design', 1998, #87 ) ;
#195 = EDGE_LOOP ( 'NONE', ( #138, #42 ) ) ;
#196 = AXIS2_PLACEMENT_3D ( 'NONE', #148, #129, #68 ) ;
#197 = LINE ( 'NONE', #137, #17 ) ;
#198 = VERTEX_POINT ( 'NONE', #15 ) ;
#199 = DIRECTION ( 'NONE',  ( 1.224646799147353200E-016, 0.0000000000000000000, -1.000000000000000000 ) ) ;
#200 = DIRECTION ( 'NONE',  ( -1.000000000000000000, 0.0000000000000000000, 0.0000000000000000000 ) ) ;
ENDSEC;
END-ISO-10303-21;
