ISO-10303-21;
HEADER;
FILE_DESCRIPTION (( 'STEP AP214' ),
    '1' );
FILE_NAME ('àðò. KRT512.STEP',
    '2014-06-03T09:49:06',
    ( '' ),
    ( '' ),
    'SwSTEP 2.0',
    'SolidWorks 2014',
    '' );
FILE_SCHEMA (( 'AUTOMOTIVE_DESIGN' ));
ENDSEC;

DATA;
#1 = EDGE_CURVE ( 'NONE', #386, #298, #267, .T. ) ;
#2 = CARTESIAN_POINT ( 'NONE',  ( 6.674325055353075800E-015, 19.00000000000000400, -54.00000000000000700 ) ) ;
#3 = CIRCLE ( 'NONE', #129, 56.00000000000000700 ) ;
#4 = ORIENTED_EDGE ( 'NONE', *, *, #391, .F. ) ;
#5 = EDGE_LOOP ( 'NONE', ( #381, #305, #110, #18 ) ) ;
#6 = VERTEX_POINT ( 'NONE', #230 ) ;
#7 = AXIS2_PLACEMENT_3D ( 'NONE', #157, #370, #243 ) ;
#8 =( NAMED_UNIT ( * ) PLANE_ANGLE_UNIT ( ) SI_UNIT ( $, .RADIAN. ) );
#9 = FACE_OUTER_BOUND ( 'NONE', #392, .T. ) ;
#10 = VERTEX_POINT ( 'NONE', #13 ) ;
#11 = DIRECTION ( 'NONE',  ( 1.000000000000000000, 0.0000000000000000000, 0.0000000000000000000 ) ) ;
#12 = EDGE_LOOP ( 'NONE', ( #125, #73, #251, #15 ) ) ;
#13 = CARTESIAN_POINT ( 'NONE',  ( 6.858022075225179300E-015, 0.0000000000000000000, 56.00000000000000700 ) ) ;
#14 = AXIS2_PLACEMENT_3D ( 'NONE', #104, #293, #108 ) ;
#15 = ORIENTED_EDGE ( 'NONE', *, *, #280, .F. ) ;
#16 = DIRECTION ( 'NONE',  ( 1.224646799147353500E-016, 0.0000000000000000000, -1.000000000000000000 ) ) ;
#17 = CIRCLE ( 'NONE', #376, 56.00000000000000700 ) ;
#18 = ORIENTED_EDGE ( 'NONE', *, *, #387, .F. ) ;
#19 = DIRECTION ( 'NONE',  ( 0.0000000000000000000, 0.0000000000000000000, 1.000000000000000000 ) ) ;
#20 = DIRECTION ( 'NONE',  ( 0.0000000000000000000, 1.000000000000000000, 0.0000000000000000000 ) ) ;
#21 = AXIS2_PLACEMENT_3D ( 'NONE', #218, #281, #155 ) ;
#22 = FACE_OUTER_BOUND ( 'NONE', #357, .T. ) ;
#23 = FACE_OUTER_BOUND ( 'NONE', #69, .T. ) ;
#24 = VERTEX_POINT ( 'NONE', #197 ) ;
#25 = DIRECTION ( 'NONE',  ( -0.0000000000000000000, -1.000000000000000000, -0.0000000000000000000 ) ) ;
#26 = ORIENTED_EDGE ( 'NONE', *, *, #1, .F. ) ;
#27 = CARTESIAN_POINT ( 'NONE',  ( 6.613092715395708300E-015, 18.00000000000000400, -54.00000000000000700 ) ) ;
#28 = CLOSED_SHELL ( 'NONE', ( #264, #350, #166, #164, #138, #173, #225, #171, #194, #133, #75, #45, #114 ) ) ;
#29 = DIRECTION ( 'NONE',  ( -0.0000000000000000000, 1.000000000000000000, -0.0000000000000000000 ) ) ;
#30 = CARTESIAN_POINT ( 'NONE',  ( 0.0000000000000000000, 19.00000000000000400, 54.00000000000000700 ) ) ;
#31 = LINE ( 'NONE', #338, #378 ) ;
#32 = DIRECTION ( 'NONE',  ( -0.0000000000000000000, 1.000000000000000000, -0.0000000000000000000 ) ) ;
#33 = EDGE_LOOP ( 'NONE', ( #168, #71, #130, #105 ) ) ;
#34 = AXIS2_PLACEMENT_3D ( 'NONE', #238, #117, #51 ) ;
#35 = DIRECTION ( 'NONE',  ( 0.0000000000000000000, 0.0000000000000000000, 1.000000000000000000 ) ) ;
#36 = PRODUCT ( 'àðò. KRT512', 'àðò. KRT512', '', ( #379 ) ) ;
#37 = CARTESIAN_POINT ( 'NONE',  ( 0.0000000000000000000, 20.00000000000000000, 25.64999999999999900 ) ) ;
#38 = TOROIDAL_SURFACE ( 'NONE', #118, 54.00000000000000700, 1.000000000000000000 ) ;
#39 = STYLED_ITEM ( 'NONE', ( #122 ), #211 ) ;
#40 = EDGE_CURVE ( 'NONE', #298, #63, #184, .T. ) ;
#41 = DIRECTION ( 'NONE',  ( 0.0000000000000000000, 0.0000000000000000000, 1.000000000000000000 ) ) ;
#42 = DIRECTION ( 'NONE',  ( 0.0000000000000000000, 0.0000000000000000000, 1.000000000000000000 ) ) ;
#43 = FACE_OUTER_BOUND ( 'NONE', #250, .T. ) ;
#44 = DIRECTION ( 'NONE',  ( -0.0000000000000000000, -1.000000000000000000, -0.0000000000000000000 ) ) ;
#45 = ADVANCED_FACE ( 'NONE', ( #219 ), #38, .F. ) ;
#46 = EDGE_CURVE ( 'NONE', #394, #241, #369, .T. ) ;
#47 = DIRECTION ( 'NONE',  ( -0.0000000000000000000, -1.000000000000000000, -0.0000000000000000000 ) ) ;
#48 = DIRECTION ( 'NONE',  ( -0.0000000000000000000, -1.000000000000000000, -0.0000000000000000000 ) ) ;
#49 = CIRCLE ( 'NONE', #339, 55.00000000000000700 ) ;
#50 = DIRECTION ( 'NONE',  ( 0.0000000000000000000, 0.0000000000000000000, -1.000000000000000000 ) ) ;
#51 = DIRECTION ( 'NONE',  ( 0.0000000000000000000, 0.0000000000000000000, -1.000000000000000000 ) ) ;
#52 = FILL_AREA_STYLE ('',( #393 ) ) ;
#53 = AXIS2_PLACEMENT_3D ( 'NONE', #295, #202, #175 ) ;
#54 = DIRECTION ( 'NONE',  ( 0.0000000000000000000, 0.0000000000000000000, 1.000000000000000000 ) ) ;
#55 = TOROIDAL_SURFACE ( 'NONE', #98, 54.00000000000000700, 2.000000000000000000 ) ;
#56 = DIRECTION ( 'NONE',  ( 0.0000000000000000000, 1.000000000000000000, 0.0000000000000000000 ) ) ;
#57 = DIRECTION ( 'NONE',  ( 0.0000000000000000000, 0.0000000000000000000, 1.000000000000000000 ) ) ;
#58 = VERTEX_POINT ( 'NONE', #37 ) ;
#59 = CARTESIAN_POINT ( 'NONE',  ( 0.0000000000000000000, 19.00000000000000000, 25.64999999999999900 ) ) ;
#60 = EDGE_CURVE ( 'NONE', #284, #63, #254, .T. ) ;
#61 = EDGE_CURVE ( 'NONE', #106, #10, #176, .T. ) ;
#62 = CIRCLE ( 'NONE', #21, 54.00000000000000700 ) ;
#63 = VERTEX_POINT ( 'NONE', #170 ) ;
#64 = ORIENTED_EDGE ( 'NONE', *, *, #132, .F. ) ;
#65 = EDGE_CURVE ( 'NONE', #345, #10, #116, .T. ) ;
#66 =( GEOMETRIC_REPRESENTATION_CONTEXT ( 3 ) GLOBAL_UNCERTAINTY_ASSIGNED_CONTEXT ( ( #233 ) ) GLOBAL_UNIT_ASSIGNED_CONTEXT ( ( #277, #8, #340 ) ) REPRESENTATION_CONTEXT ( 'NONE', 'WORKASPACE' ) );
#67 = FACE_BOUND ( 'NONE', #351, .T. ) ;
#68 = SURFACE_SIDE_STYLE ('',( #200 ) ) ;
#69 = EDGE_LOOP ( 'NONE', ( #190, #156, #289, #88 ) ) ;
#70 = EDGE_CURVE ( 'NONE', #333, #345, #272, .T. ) ;
#71 = ORIENTED_EDGE ( 'NONE', *, *, #285, .T. ) ;
#72 = AXIS2_PLACEMENT_3D ( 'NONE', #385, #388, #358 ) ;
#73 = ORIENTED_EDGE ( 'NONE', *, *, #343, .T. ) ;
#74 = CARTESIAN_POINT ( 'NONE',  ( 0.0000000000000000000, 18.00000000000000400, 0.0000000000000000000 ) ) ;
#75 = ADVANCED_FACE ( 'NONE', ( #258, #80 ), #269, .F. ) ;
#76 = DIRECTION ( 'NONE',  ( 0.0000000000000000000, 1.000000000000000000, 0.0000000000000000000 ) ) ;
#77 = DIRECTION ( 'NONE',  ( 0.0000000000000000000, 0.0000000000000000000, 1.000000000000000000 ) ) ;
#78 = FACE_OUTER_BOUND ( 'NONE', #12, .T. ) ;
#79 = CARTESIAN_POINT ( 'NONE',  ( 0.0000000000000000000, 0.0000000000000000000, 0.0000000000000000000 ) ) ;
#80 = FACE_OUTER_BOUND ( 'NONE', #294, .T. ) ;
#81 = DIRECTION ( 'NONE',  ( 0.0000000000000000000, 0.0000000000000000000, -1.000000000000000000 ) ) ;
#82 =( NAMED_UNIT ( * ) PLANE_ANGLE_UNIT ( ) SI_UNIT ( $, .RADIAN. ) );
#83 = AXIS2_PLACEMENT_3D ( 'NONE', #139, #44, #203 ) ;
#84 = LINE ( 'NONE', #366, #374 ) ;
#85 = DIRECTION ( 'NONE',  ( 0.0000000000000000000, 1.000000000000000000, 0.0000000000000000000 ) ) ;
#86 = ORIENTED_EDGE ( 'NONE', *, *, #174, .T. ) ;
#87 = CARTESIAN_POINT ( 'NONE',  ( 0.0000000000000000000, 18.00000000000000400, 0.0000000000000000000 ) ) ;
#88 = ORIENTED_EDGE ( 'NONE', *, *, #300, .T. ) ;
#89 = CARTESIAN_POINT ( 'NONE',  ( 6.735557395310444200E-015, 18.00000000000000400, 55.00000000000000700 ) ) ;
#90 = AXIS2_PLACEMENT_3D ( 'NONE', #74, #134, #135 ) ;
#91 = CARTESIAN_POINT ( 'NONE',  ( 0.0000000000000000000, 18.00000000000000400, 0.0000000000000000000 ) ) ;
#92 = CYLINDRICAL_SURFACE ( 'NONE', #365, 56.00000000000000700 ) ;
#93 = ORIENTED_EDGE ( 'NONE', *, *, #199, .F. ) ;
#94 = CARTESIAN_POINT ( 'NONE',  ( 0.0000000000000000000, 18.00000000000000400, -56.00000000000000700 ) ) ;
#95 = ORIENTED_EDGE ( 'NONE', *, *, #217, .F. ) ;
#96 = FILL_AREA_STYLE_COLOUR ( '', #119 ) ;
#97 = ORIENTED_EDGE ( 'NONE', *, *, #387, .T. ) ;
#98 = AXIS2_PLACEMENT_3D ( 'NONE', #87, #85, #332 ) ;
#99 = ORIENTED_EDGE ( 'NONE', *, *, #199, .T. ) ;
#100 =( LENGTH_UNIT ( ) NAMED_UNIT ( * ) SI_UNIT ( .MILLI., .METRE. ) );
#101 = EDGE_CURVE ( 'NONE', #63, #284, #49, .T. ) ;
#102 = CYLINDRICAL_SURFACE ( 'NONE', #359, 25.64999999999999900 ) ;
#103 = ORIENTED_EDGE ( 'NONE', *, *, #300, .F. ) ;
#104 = CARTESIAN_POINT ( 'NONE',  ( 0.0000000000000000000, 19.00000000000000000, 0.0000000000000000000 ) ) ;
#105 = ORIENTED_EDGE ( 'NONE', *, *, #65, .T. ) ;
#106 = VERTEX_POINT ( 'NONE', #111 ) ;
#107 = CARTESIAN_POINT ( 'NONE',  ( 6.613092715395708300E-015, 18.00000000000000400, -54.00000000000000700 ) ) ;
#108 = DIRECTION ( 'NONE',  ( 0.0000000000000000000, -0.0000000000000000000, 1.000000000000000000 ) ) ;
#109 = AXIS2_PLACEMENT_3D ( 'NONE', #286, #372, #35 ) ;
#110 = ORIENTED_EDGE ( 'NONE', *, *, #312, .T. ) ;
#111 = CARTESIAN_POINT ( 'NONE',  ( 6.858022075225179300E-015, 18.00000000000000400, 56.00000000000000700 ) ) ;
#112 = DIRECTION ( 'NONE',  ( -0.0000000000000000000, 1.000000000000000000, -0.0000000000000000000 ) ) ;
#113 = STYLED_ITEM ( 'NONE', ( #364 ), #247 ) ;
#114 = ADVANCED_FACE ( 'NONE', ( #23 ), #102, .F. ) ;
#115 = EDGE_CURVE ( 'NONE', #241, #394, #319, .T. ) ;
#116 = CIRCLE ( 'NONE', #193, 56.00000000000000700 ) ;
#117 = DIRECTION ( 'NONE',  ( -0.0000000000000000000, -1.000000000000000000, -0.0000000000000000000 ) ) ;
#118 = AXIS2_PLACEMENT_3D ( 'NONE', #198, #227, #42 ) ;
#119 = COLOUR_RGB ( '',0.7921568627450980000, 0.8196078431372548800, 0.9333333333333333500 ) ;
#120 = DIRECTION ( 'NONE',  ( 0.0000000000000000000, 1.000000000000000000, 0.0000000000000000000 ) ) ;
#121 = CARTESIAN_POINT ( 'NONE',  ( 0.0000000000000000000, 0.0000000000000000000, -56.00000000000000700 ) ) ;
#122 = PRESENTATION_STYLE_ASSIGNMENT (( #270 ) ) ;
#123 = CARTESIAN_POINT ( 'NONE',  ( 0.0000000000000000000, 18.00000000000000400, -55.00000000000000700 ) ) ;
#124 = CYLINDRICAL_SURFACE ( 'NONE', #83, 55.00000000000000700 ) ;
#125 = ORIENTED_EDGE ( 'NONE', *, *, #115, .F. ) ;
#126 = AXIS2_PLACEMENT_3D ( 'NONE', #216, #120, #187 ) ;
#127 = TOROIDAL_SURFACE ( 'NONE', #226, 54.00000000000000700, 2.000000000000000000 ) ;
#128 = ORIENTED_EDGE ( 'NONE', *, *, #285, .F. ) ;
#129 = AXIS2_PLACEMENT_3D ( 'NONE', #91, #25, #395 ) ;
#130 = ORIENTED_EDGE ( 'NONE', *, *, #70, .T. ) ;
#131 = SURFACE_STYLE_USAGE ( .BOTH. , #68 ) ;
#132 = EDGE_CURVE ( 'NONE', #333, #260, #341, .T. ) ;
#133 = ADVANCED_FACE ( 'NONE', ( #317 ), #124, .F. ) ;
#134 = DIRECTION ( 'NONE',  ( -0.0000000000000000000, -1.000000000000000000, -0.0000000000000000000 ) ) ;
#135 = DIRECTION ( 'NONE',  ( 0.0000000000000000000, 0.0000000000000000000, -1.000000000000000000 ) ) ;
#136 = ORIENTED_EDGE ( 'NONE', *, *, #40, .F. ) ;
#137 = DIRECTION ( 'NONE',  ( -0.0000000000000000000, -1.000000000000000000, -0.0000000000000000000 ) ) ;
#138 = ADVANCED_FACE ( 'NONE', ( #9 ), #92, .T. ) ;
#139 = CARTESIAN_POINT ( 'NONE',  ( 0.0000000000000000000, 20.00000000000000000, 0.0000000000000000000 ) ) ;
#140 = CIRCLE ( 'NONE', #288, 54.00000000000000700 ) ;
#141 = DIRECTION ( 'NONE',  ( 0.0000000000000000000, 1.000000000000000000, 0.0000000000000000000 ) ) ;
#142 = EDGE_LOOP ( 'NONE', ( #314, #344 ) ) ;
#143 =( NAMED_UNIT ( * ) SI_UNIT ( $, .STERADIAN. ) SOLID_ANGLE_UNIT ( ) );
#144 = DIRECTION ( 'NONE',  ( 0.0000000000000000000, 1.000000000000000000, 0.0000000000000000000 ) ) ;
#145 = CARTESIAN_POINT ( 'NONE',  ( 0.0000000000000000000, 20.00000000000000000, -55.00000000000000700 ) ) ;
#146 = CIRCLE ( 'NONE', #274, 1.000000000000000900 ) ;
#147 = CARTESIAN_POINT ( 'NONE',  ( 6.735557395310443400E-015, 20.00000000000000000, -54.00000000000000700 ) ) ;
#148 = EDGE_LOOP ( 'NONE', ( #93, #196, #163, #4 ) ) ;
#149 = ORIENTED_EDGE ( 'NONE', *, *, #328, .F. ) ;
#150 = CARTESIAN_POINT ( 'NONE',  ( 0.0000000000000000000, 18.00000000000000400, 54.00000000000000700 ) ) ;
#151 = MECHANICAL_DESIGN_GEOMETRIC_PRESENTATION_REPRESENTATION (  '', ( #39 ), #371 ) ;
#152 = PRODUCT_DEFINITION_SHAPE ( 'NONE', 'NONE',  #253 ) ;
#153 = ORIENTED_EDGE ( 'NONE', *, *, #217, .T. ) ;
#154 = PRESENTATION_LAYER_ASSIGNMENT (  '', '', ( #113 ) ) ;
#155 = DIRECTION ( 'NONE',  ( 0.0000000000000000000, 0.0000000000000000000, 1.000000000000000000 ) ) ;
#156 = ORIENTED_EDGE ( 'NONE', *, *, #46, .F. ) ;
#157 = CARTESIAN_POINT ( 'NONE',  ( 0.0000000000000000000, 18.00000000000000400, 0.0000000000000000000 ) ) ;
#158 = TOROIDAL_SURFACE ( 'NONE', #7, 54.00000000000000700, 1.000000000000000000 ) ;
#159 = DIRECTION ( 'NONE',  ( -1.000000000000000000, 0.0000000000000000000, 0.0000000000000000000 ) ) ;
#160 = ORIENTED_EDGE ( 'NONE', *, *, #255, .F. ) ;
#161 = AXIS2_PLACEMENT_3D ( 'NONE', #182, #214, #307 ) ;
#162 = UNCERTAINTY_MEASURE_WITH_UNIT (LENGTH_MEASURE( 1.000000000000000100E-005 ), #100, 'distance_accuracy_value', 'NONE');
#163 = ORIENTED_EDGE ( 'NONE', *, *, #290, .F. ) ;
#164 = ADVANCED_FACE ( 'NONE', ( #201 ), #55, .T. ) ;
#165 = AXIS2_PLACEMENT_3D ( 'NONE', #320, #231, #77 ) ;
#166 = ADVANCED_FACE ( 'NONE', ( #360 ), #308, .F. ) ;
#167 = CARTESIAN_POINT ( 'NONE',  ( 0.0000000000000000000, 19.00000000000000000, 0.0000000000000000000 ) ) ;
#168 = ORIENTED_EDGE ( 'NONE', *, *, #61, .F. ) ;
#169 = EDGE_LOOP ( 'NONE', ( #191, #375, #97, #326 ) ) ;
#170 = CARTESIAN_POINT ( 'NONE',  ( 6.735557395310444200E-015, 0.0000000000000000000, 55.00000000000000700 ) ) ;
#171 = ADVANCED_FACE ( 'NONE', ( #67, #43 ), #181, .F. ) ;
#172 = CARTESIAN_POINT ( 'NONE',  ( 0.0000000000000000000, 0.0000000000000000000, 0.0000000000000000000 ) ) ;
#173 = ADVANCED_FACE ( 'NONE', ( #283 ), #265, .T. ) ;
#174 = EDGE_CURVE ( 'NONE', #260, #6, #349, .T. ) ;
#175 = DIRECTION ( 'NONE',  ( 0.0000000000000000000, 0.0000000000000000000, 1.000000000000000000 ) ) ;
#176 = LINE ( 'NONE', #377, #397 ) ;
#177 = CARTESIAN_POINT ( 'NONE',  ( 0.0000000000000000000, 20.00000000000000000, 0.0000000000000000000 ) ) ;
#178 = MECHANICAL_DESIGN_GEOMETRIC_PRESENTATION_REPRESENTATION (  '', ( #113 ), #215 ) ;
#179 = CARTESIAN_POINT ( 'NONE',  ( 0.0000000000000000000, 20.00000000000000000, 0.0000000000000000000 ) ) ;
#180 = VECTOR ( 'NONE', #384, 1000.000000000000000 ) ;
#181 = PLANE ( 'NONE',  #72 ) ;
#182 = CARTESIAN_POINT ( 'NONE',  ( 0.0000000000000000000, 20.00000000000000000, 0.0000000000000000000 ) ) ;
#183 = CARTESIAN_POINT ( 'NONE',  ( 0.0000000000000000000, 20.00000000000000000, 0.0000000000000000000 ) ) ;
#184 = LINE ( 'NONE', #322, #180 ) ;
#185 = ORIENTED_EDGE ( 'NONE', *, *, #40, .T. ) ;
#186 = CARTESIAN_POINT ( 'NONE',  ( 0.0000000000000000000, 0.0000000000000000000, -55.00000000000000700 ) ) ;
#187 = DIRECTION ( 'NONE',  ( 0.0000000000000000000, 0.0000000000000000000, 1.000000000000000000 ) ) ;
#188 = VECTOR ( 'NONE', #137, 1000.000000000000000 ) ;
#189 = EDGE_CURVE ( 'NONE', #298, #386, #316, .T. ) ;
#190 = ORIENTED_EDGE ( 'NONE', *, *, #343, .F. ) ;
#191 = ORIENTED_EDGE ( 'NONE', *, *, #318, .F. ) ;
#192 = CARTESIAN_POINT ( 'NONE',  ( 0.0000000000000000000, 0.0000000000000000000, 0.0000000000000000000 ) ) ;
#193 = AXIS2_PLACEMENT_3D ( 'NONE', #172, #229, #41 ) ;
#194 = ADVANCED_FACE ( 'NONE', ( #22 ), #127, .T. ) ;
#195 = CIRCLE ( 'NONE', #126, 25.64999999999999900 ) ;
#196 = ORIENTED_EDGE ( 'NONE', *, *, #132, .T. ) ;
#197 = CARTESIAN_POINT ( 'NONE',  ( 3.141219039812960700E-015, 20.00000000000000000, -25.64999999999999900 ) ) ;
#198 = CARTESIAN_POINT ( 'NONE',  ( 0.0000000000000000000, 18.00000000000000400, 0.0000000000000000000 ) ) ;
#199 = EDGE_CURVE ( 'NONE', #333, #106, #17, .T. ) ;
#200 = SURFACE_STYLE_FILL_AREA ( #259 ) ;
#201 = FACE_OUTER_BOUND ( 'NONE', #148, .T. ) ;
#202 = DIRECTION ( 'NONE',  ( 0.0000000000000000000, 1.000000000000000000, 0.0000000000000000000 ) ) ;
#203 = DIRECTION ( 'NONE',  ( 0.0000000000000000000, 0.0000000000000000000, -1.000000000000000000 ) ) ;
#204 = FACE_OUTER_BOUND ( 'NONE', #5, .T. ) ;
#205 = PRODUCT_RELATED_PRODUCT_CATEGORY ( 'part', '', ( #36 ) ) ;
#206 = CARTESIAN_POINT ( 'NONE',  ( 0.0000000000000000000, 20.00000000000000000, 0.0000000000000000000 ) ) ;
#207 = EDGE_LOOP ( 'NONE', ( #313, #185, #235, #95 ) ) ;
#208 = DIRECTION ( 'NONE',  ( 0.0000000000000000000, -0.0000000000000000000, 1.000000000000000000 ) ) ;
#209 = AXIS2_PLACEMENT_3D ( 'NONE', #177, #330, #81 ) ;
#210 = DIRECTION ( 'NONE',  ( -0.0000000000000000000, -1.000000000000000000, -0.0000000000000000000 ) ) ;
#211 = MANIFOLD_SOLID_BREP ( 'Âûðåç-Âûòÿíóòü1', #28 ) ;
#212 = PLANE ( 'NONE',  #323 ) ;
#213 = ORIENTED_EDGE ( 'NONE', *, *, #101, .F. ) ;
#214 = DIRECTION ( 'NONE',  ( 0.0000000000000000000, 1.000000000000000000, 0.0000000000000000000 ) ) ;
#215 =( GEOMETRIC_REPRESENTATION_CONTEXT ( 3 ) GLOBAL_UNCERTAINTY_ASSIGNED_CONTEXT ( ( #162 ) ) GLOBAL_UNIT_ASSIGNED_CONTEXT ( ( #100, #346, #257 ) ) REPRESENTATION_CONTEXT ( 'NONE', 'WORKASPACE' ) );
#216 = CARTESIAN_POINT ( 'NONE',  ( 0.0000000000000000000, 20.00000000000000000, 0.0000000000000000000 ) ) ;
#217 = EDGE_CURVE ( 'NONE', #386, #284, #248, .T. ) ;
#218 = CARTESIAN_POINT ( 'NONE',  ( 0.0000000000000000000, 19.00000000000000400, 0.0000000000000000000 ) ) ;
#219 = FACE_OUTER_BOUND ( 'NONE', #169, .T. ) ;
#220 = APPLICATION_PROTOCOL_DEFINITION ( 'draft international standard', 'automotive_design', 1998, #311 ) ;
#221 = AXIS2_PLACEMENT_3D ( 'NONE', #183, #336, #57 ) ;
#222 = ORIENTED_EDGE ( 'NONE', *, *, #312, .F. ) ;
#223 = APPLICATION_CONTEXT ( 'automotive_design' ) ;
#224 = ORIENTED_EDGE ( 'NONE', *, *, #290, .T. ) ;
#225 = ADVANCED_FACE ( 'NONE', ( #291, #282 ), #212, .T. ) ;
#226 = AXIS2_PLACEMENT_3D ( 'NONE', #390, #144, #54 ) ;
#227 = DIRECTION ( 'NONE',  ( 0.0000000000000000000, 1.000000000000000000, 0.0000000000000000000 ) ) ;
#228 = ORIENTED_EDGE ( 'NONE', *, *, #65, .F. ) ;
#229 = DIRECTION ( 'NONE',  ( 0.0000000000000000000, 1.000000000000000000, 0.0000000000000000000 ) ) ;
#230 = CARTESIAN_POINT ( 'NONE',  ( 0.0000000000000000000, 20.00000000000000000, 54.00000000000000700 ) ) ;
#231 = DIRECTION ( 'NONE',  ( 0.0000000000000000000, 1.000000000000000000, 0.0000000000000000000 ) ) ;
#232 = CIRCLE ( 'NONE', #109, 2.000000000000001800 ) ;
#233 = UNCERTAINTY_MEASURE_WITH_UNIT (LENGTH_MEASURE( 1.000000000000000100E-005 ), #277, 'distance_accuracy_value', 'NONE');
#234 = CARTESIAN_POINT ( 'NONE',  ( 0.0000000000000000000, 0.0000000000000000000, 0.0000000000000000000 ) ) ;
#235 = ORIENTED_EDGE ( 'NONE', *, *, #60, .F. ) ;
#236 = CARTESIAN_POINT ( 'NONE',  ( 0.0000000000000000000, 18.00000000000000400, 0.0000000000000000000 ) ) ;
#237 = EDGE_CURVE ( 'NONE', #337, #380, #140, .T. ) ;
#238 = CARTESIAN_POINT ( 'NONE',  ( 0.0000000000000000000, 20.00000000000000000, 0.0000000000000000000 ) ) ;
#239 = CIRCLE ( 'NONE', #304, 1.000000000000000900 ) ;
#240 = SURFACE_STYLE_FILL_AREA ( #52 ) ;
#241 = VERTEX_POINT ( 'NONE', #302 ) ;
#242 = PRESENTATION_LAYER_ASSIGNMENT (  '', '', ( #39 ) ) ;
#243 = DIRECTION ( 'NONE',  ( 0.0000000000000000000, 0.0000000000000000000, 1.000000000000000000 ) ) ;
#244 = EDGE_LOOP ( 'NONE', ( #103, #160 ) ) ;
#245 = CARTESIAN_POINT ( 'NONE',  ( 0.0000000000000000000, 19.00000000000000400, 0.0000000000000000000 ) ) ;
#246 = AXIS2_PLACEMENT_3D ( 'NONE', #192, #352, #11 ) ;
#247 = ADVANCED_BREP_SHAPE_REPRESENTATION ( 'ð¨ª. KRT512', ( #211, #246 ), #66 ) ;
#248 = LINE ( 'NONE', #145, #368 ) ;
#249 = AXIS2_PLACEMENT_3D ( 'NONE', #79, #112, #335 ) ;
#250 = EDGE_LOOP ( 'NONE', ( #228, #149 ) ) ;
#251 = ORIENTED_EDGE ( 'NONE', *, *, #255, .T. ) ;
#252 = DIRECTION ( 'NONE',  ( 0.0000000000000000000, 0.0000000000000000000, 1.000000000000000000 ) ) ;
#253 = PRODUCT_DEFINITION ( 'UNKNOWN', '', #271, #287 ) ;
#254 = CIRCLE ( 'NONE', #165, 55.00000000000000700 ) ;
#255 = EDGE_CURVE ( 'NONE', #24, #58, #195, .T. ) ;
#256 = UNCERTAINTY_MEASURE_WITH_UNIT (LENGTH_MEASURE( 1.000000000000000100E-005 ), #297, 'distance_accuracy_value', 'NONE');
#257 =( NAMED_UNIT ( * ) SI_UNIT ( $, .STERADIAN. ) SOLID_ANGLE_UNIT ( ) );
#258 = FACE_BOUND ( 'NONE', #142, .T. ) ;
#259 = FILL_AREA_STYLE ('',( #96 ) ) ;
#260 = VERTEX_POINT ( 'NONE', #147 ) ;
#261 = CARTESIAN_POINT ( 'NONE',  ( 0.0000000000000000000, 0.0000000000000000000, 0.0000000000000000000 ) ) ;
#262 = AXIS2_PLACEMENT_3D ( 'NONE', #206, #141, #329 ) ;
#263 = DIRECTION ( 'NONE',  ( 1.000000000000000000, -0.0000000000000000000, 1.224646799147353200E-016 ) ) ;
#264 = ADVANCED_FACE ( 'NONE', ( #78 ), #331, .F. ) ;
#265 = CYLINDRICAL_SURFACE ( 'NONE', #34, 56.00000000000000700 ) ;
#266 = CARTESIAN_POINT ( 'NONE',  ( 0.0000000000000000000, 20.00000000000000000, -56.00000000000000700 ) ) ;
#267 = CIRCLE ( 'NONE', #90, 55.00000000000000700 ) ;
#268 = ORIENTED_EDGE ( 'NONE', *, *, #70, .F. ) ;
#269 = PLANE ( 'NONE',  #14 ) ;
#270 = SURFACE_STYLE_USAGE ( .BOTH. , #301 ) ;
#271 = PRODUCT_DEFINITION_FORMATION_WITH_SPECIFIED_SOURCE ( 'ANY', '', #36, .NOT_KNOWN. ) ;
#272 = LINE ( 'NONE', #266, #188 ) ;
#273 = DIRECTION ( 'NONE',  ( 0.0000000000000000000, 0.0000000000000000000, -1.000000000000000000 ) ) ;
#274 = AXIS2_PLACEMENT_3D ( 'NONE', #150, #159, #252 ) ;
#275 = EDGE_LOOP ( 'NONE', ( #136, #26, #153, #213 ) ) ;
#276 = CARTESIAN_POINT ( 'NONE',  ( 0.0000000000000000000, 20.00000000000000000, 0.0000000000000000000 ) ) ;
#277 =( LENGTH_UNIT ( ) NAMED_UNIT ( * ) SI_UNIT ( .MILLI., .METRE. ) );
#278 = ORIENTED_EDGE ( 'NONE', *, *, #60, .T. ) ;
#279 = CARTESIAN_POINT ( 'NONE',  ( 0.0000000000000000000, 0.0000000000000000000, 0.0000000000000000000 ) ) ;
#280 = EDGE_CURVE ( 'NONE', #394, #58, #84, .T. ) ;
#281 = DIRECTION ( 'NONE',  ( 0.0000000000000000000, 1.000000000000000000, 0.0000000000000000000 ) ) ;
#282 = FACE_OUTER_BOUND ( 'NONE', #321, .T. ) ;
#283 = FACE_OUTER_BOUND ( 'NONE', #33, .T. ) ;
#284 = VERTEX_POINT ( 'NONE', #186 ) ;
#285 = EDGE_CURVE ( 'NONE', #106, #333, #3, .T. ) ;
#286 = CARTESIAN_POINT ( 'NONE',  ( 0.0000000000000000000, 18.00000000000000400, 54.00000000000000700 ) ) ;
#287 = PRODUCT_DEFINITION_CONTEXT ( 'detailed design', #223, 'design' ) ;
#288 = AXIS2_PLACEMENT_3D ( 'NONE', #245, #367, #310 ) ;
#289 = ORIENTED_EDGE ( 'NONE', *, *, #280, .T. ) ;
#290 = EDGE_CURVE ( 'NONE', #6, #260, #396, .T. ) ;
#291 = FACE_BOUND ( 'NONE', #244, .T. ) ;
#292 = SHAPE_DEFINITION_REPRESENTATION ( #152, #247 ) ;
#293 = DIRECTION ( 'NONE',  ( 0.0000000000000000000, 1.000000000000000000, 0.0000000000000000000 ) ) ;
#294 = EDGE_LOOP ( 'NONE', ( #373, #222 ) ) ;
#295 = CARTESIAN_POINT ( 'NONE',  ( 0.0000000000000000000, 19.00000000000000000, 0.0000000000000000000 ) ) ;
#296 = DIRECTION ( 'NONE',  ( -0.0000000000000000000, 1.000000000000000000, -0.0000000000000000000 ) ) ;
#297 =( LENGTH_UNIT ( ) NAMED_UNIT ( * ) SI_UNIT ( .MILLI., .METRE. ) );
#298 = VERTEX_POINT ( 'NONE', #89 ) ;
#299 = AXIS2_PLACEMENT_3D ( 'NONE', #167, #355, #324 ) ;
#300 = EDGE_CURVE ( 'NONE', #58, #24, #315, .T. ) ;
#301 = SURFACE_SIDE_STYLE ('',( #240 ) ) ;
#302 = CARTESIAN_POINT ( 'NONE',  ( 3.141219039812960700E-015, 19.00000000000000000, -25.64999999999999900 ) ) ;
#303 = DIRECTION ( 'NONE',  ( 1.224646799147349500E-016, 0.0000000000000000000, -1.000000000000000000 ) ) ;
#304 = AXIS2_PLACEMENT_3D ( 'NONE', #27, #306, #303 ) ;
#305 = ORIENTED_EDGE ( 'NONE', *, *, #318, .T. ) ;
#306 = DIRECTION ( 'NONE',  ( 1.000000000000000000, -0.0000000000000000000, 1.224646799147353200E-016 ) ) ;
#307 = DIRECTION ( 'NONE',  ( 0.0000000000000000000, 0.0000000000000000000, 1.000000000000000000 ) ) ;
#308 = CYLINDRICAL_SURFACE ( 'NONE', #209, 55.00000000000000700 ) ;
#309 = ORIENTED_EDGE ( 'NONE', *, *, #391, .T. ) ;
#310 = DIRECTION ( 'NONE',  ( 0.0000000000000000000, 0.0000000000000000000, 1.000000000000000000 ) ) ;
#311 = APPLICATION_CONTEXT ( 'automotive_design' ) ;
#312 = EDGE_CURVE ( 'NONE', #380, #337, #62, .T. ) ;
#313 = ORIENTED_EDGE ( 'NONE', *, *, #189, .F. ) ;
#314 = ORIENTED_EDGE ( 'NONE', *, *, #46, .T. ) ;
#315 = CIRCLE ( 'NONE', #221, 25.64999999999999900 ) ;
#316 = CIRCLE ( 'NONE', #354, 55.00000000000000700 ) ;
#317 = FACE_OUTER_BOUND ( 'NONE', #275, .T. ) ;
#318 = EDGE_CURVE ( 'NONE', #386, #380, #239, .T. ) ;
#319 = CIRCLE ( 'NONE', #53, 25.64999999999999900 ) ;
#320 = CARTESIAN_POINT ( 'NONE',  ( 0.0000000000000000000, 0.0000000000000000000, 0.0000000000000000000 ) ) ;
#321 = EDGE_LOOP ( 'NONE', ( #224, #86 ) ) ;
#322 = CARTESIAN_POINT ( 'NONE',  ( 6.735557395310444200E-015, 20.00000000000000000, 55.00000000000000700 ) ) ;
#323 = AXIS2_PLACEMENT_3D ( 'NONE', #276, #20, #208 ) ;
#324 = DIRECTION ( 'NONE',  ( 0.0000000000000000000, 0.0000000000000000000, 1.000000000000000000 ) ) ;
#325 = ORIENTED_EDGE ( 'NONE', *, *, #101, .T. ) ;
#326 = ORIENTED_EDGE ( 'NONE', *, *, #237, .T. ) ;
#327 = DIRECTION ( 'NONE',  ( -0.0000000000000000000, -1.000000000000000000, -0.0000000000000000000 ) ) ;
#328 = EDGE_CURVE ( 'NONE', #10, #345, #347, .T. ) ;
#329 = DIRECTION ( 'NONE',  ( 0.0000000000000000000, 0.0000000000000000000, 1.000000000000000000 ) ) ;
#330 = DIRECTION ( 'NONE',  ( -0.0000000000000000000, -1.000000000000000000, -0.0000000000000000000 ) ) ;
#331 = CYLINDRICAL_SURFACE ( 'NONE', #249, 25.64999999999999900 ) ;
#332 = DIRECTION ( 'NONE',  ( 0.0000000000000000000, 0.0000000000000000000, 1.000000000000000000 ) ) ;
#333 = VERTEX_POINT ( 'NONE', #94 ) ;
#334 = AXIS2_PLACEMENT_3D ( 'NONE', #107, #263, #16 ) ;
#335 = DIRECTION ( 'NONE',  ( 0.0000000000000000000, 0.0000000000000000000, 1.000000000000000000 ) ) ;
#336 = DIRECTION ( 'NONE',  ( 0.0000000000000000000, 1.000000000000000000, 0.0000000000000000000 ) ) ;
#337 = VERTEX_POINT ( 'NONE', #30 ) ;
#338 = CARTESIAN_POINT ( 'NONE',  ( 3.141219039812960700E-015, 0.0000000000000000000, -25.64999999999999900 ) ) ;
#339 = AXIS2_PLACEMENT_3D ( 'NONE', #261, #76, #19 ) ;
#340 =( NAMED_UNIT ( * ) SI_UNIT ( $, .STERADIAN. ) SOLID_ANGLE_UNIT ( ) );
#341 = CIRCLE ( 'NONE', #334, 2.000000000000001800 ) ;
#342 = ORIENTED_EDGE ( 'NONE', *, *, #328, .T. ) ;
#343 = EDGE_CURVE ( 'NONE', #241, #24, #31, .T. ) ;
#344 = ORIENTED_EDGE ( 'NONE', *, *, #115, .T. ) ;
#345 = VERTEX_POINT ( 'NONE', #121 ) ;
#346 =( NAMED_UNIT ( * ) PLANE_ANGLE_UNIT ( ) SI_UNIT ( $, .RADIAN. ) );
#347 = CIRCLE ( 'NONE', #383, 56.00000000000000700 ) ;
#348 = APPLICATION_PROTOCOL_DEFINITION ( 'draft international standard', 'automotive_design', 1998, #223 ) ;
#349 = CIRCLE ( 'NONE', #262, 54.00000000000000700 ) ;
#350 = ADVANCED_FACE ( 'NONE', ( #204 ), #158, .F. ) ;
#351 = EDGE_LOOP ( 'NONE', ( #278, #325 ) ) ;
#352 = DIRECTION ( 'NONE',  ( 0.0000000000000000000, 0.0000000000000000000, 1.000000000000000000 ) ) ;
#353 = ORIENTED_EDGE ( 'NONE', *, *, #61, .T. ) ;
#354 = AXIS2_PLACEMENT_3D ( 'NONE', #236, #48, #50 ) ;
#355 = DIRECTION ( 'NONE',  ( 0.0000000000000000000, 1.000000000000000000, 0.0000000000000000000 ) ) ;
#356 = COLOUR_RGB ( '',0.7921568627450980000, 0.8196078431372548800, 0.9333333333333333500 ) ;
#357 = EDGE_LOOP ( 'NONE', ( #64, #128, #309, #361 ) ) ;
#358 = DIRECTION ( 'NONE',  ( 0.0000000000000000000, -0.0000000000000000000, 1.000000000000000000 ) ) ;
#359 = AXIS2_PLACEMENT_3D ( 'NONE', #234, #296, #382 ) ;
#360 = FACE_OUTER_BOUND ( 'NONE', #207, .T. ) ;
#361 = ORIENTED_EDGE ( 'NONE', *, *, #174, .F. ) ;
#362 = DIRECTION ( 'NONE',  ( -0.0000000000000000000, -1.000000000000000000, -0.0000000000000000000 ) ) ;
#363 = DIRECTION ( 'NONE',  ( 0.0000000000000000000, 0.0000000000000000000, 1.000000000000000000 ) ) ;
#364 = PRESENTATION_STYLE_ASSIGNMENT (( #131 ) ) ;
#365 = AXIS2_PLACEMENT_3D ( 'NONE', #179, #327, #273 ) ;
#366 = CARTESIAN_POINT ( 'NONE',  ( 0.0000000000000000000, 0.0000000000000000000, 25.64999999999999900 ) ) ;
#367 = DIRECTION ( 'NONE',  ( 0.0000000000000000000, 1.000000000000000000, 0.0000000000000000000 ) ) ;
#368 = VECTOR ( 'NONE', #362, 1000.000000000000000 ) ;
#369 = CIRCLE ( 'NONE', #299, 25.64999999999999900 ) ;
#370 = DIRECTION ( 'NONE',  ( 0.0000000000000000000, 1.000000000000000000, 0.0000000000000000000 ) ) ;
#371 =( GEOMETRIC_REPRESENTATION_CONTEXT ( 3 ) GLOBAL_UNCERTAINTY_ASSIGNED_CONTEXT ( ( #256 ) ) GLOBAL_UNIT_ASSIGNED_CONTEXT ( ( #297, #82, #143 ) ) REPRESENTATION_CONTEXT ( 'NONE', 'WORKASPACE' ) );
#372 = DIRECTION ( 'NONE',  ( -1.000000000000000000, 0.0000000000000000000, 0.0000000000000000000 ) ) ;
#373 = ORIENTED_EDGE ( 'NONE', *, *, #237, .F. ) ;
#374 = VECTOR ( 'NONE', #32, 1000.000000000000000 ) ;
#375 = ORIENTED_EDGE ( 'NONE', *, *, #1, .T. ) ;
#376 = AXIS2_PLACEMENT_3D ( 'NONE', #389, #210, #363 ) ;
#377 = CARTESIAN_POINT ( 'NONE',  ( 6.858022075225179300E-015, 20.00000000000000000, 56.00000000000000700 ) ) ;
#378 = VECTOR ( 'NONE', #29, 1000.000000000000000 ) ;
#379 = PRODUCT_CONTEXT ( 'NONE', #311, 'mechanical' ) ;
#380 = VERTEX_POINT ( 'NONE', #2 ) ;
#381 = ORIENTED_EDGE ( 'NONE', *, *, #189, .T. ) ;
#382 = DIRECTION ( 'NONE',  ( 0.0000000000000000000, 0.0000000000000000000, 1.000000000000000000 ) ) ;
#383 = AXIS2_PLACEMENT_3D ( 'NONE', #279, #56, #398 ) ;
#384 = DIRECTION ( 'NONE',  ( -0.0000000000000000000, -1.000000000000000000, -0.0000000000000000000 ) ) ;
#385 = CARTESIAN_POINT ( 'NONE',  ( 0.0000000000000000000, 0.0000000000000000000, 0.0000000000000000000 ) ) ;
#386 = VERTEX_POINT ( 'NONE', #123 ) ;
#387 = EDGE_CURVE ( 'NONE', #298, #337, #146, .T. ) ;
#388 = DIRECTION ( 'NONE',  ( 0.0000000000000000000, 1.000000000000000000, 0.0000000000000000000 ) ) ;
#389 = CARTESIAN_POINT ( 'NONE',  ( 0.0000000000000000000, 18.00000000000000400, 0.0000000000000000000 ) ) ;
#390 = CARTESIAN_POINT ( 'NONE',  ( 0.0000000000000000000, 18.00000000000000400, 0.0000000000000000000 ) ) ;
#391 = EDGE_CURVE ( 'NONE', #106, #6, #232, .T. ) ;
#392 = EDGE_LOOP ( 'NONE', ( #99, #353, #342, #268 ) ) ;
#393 = FILL_AREA_STYLE_COLOUR ( '', #356 ) ;
#394 = VERTEX_POINT ( 'NONE', #59 ) ;
#395 = DIRECTION ( 'NONE',  ( 0.0000000000000000000, 0.0000000000000000000, 1.000000000000000000 ) ) ;
#396 = CIRCLE ( 'NONE', #161, 54.00000000000000700 ) ;
#397 = VECTOR ( 'NONE', #47, 1000.000000000000000 ) ;
#398 = DIRECTION ( 'NONE',  ( 0.0000000000000000000, 0.0000000000000000000, 1.000000000000000000 ) ) ;
ENDSEC;
END-ISO-10303-21;
