ISO-10303-21;
HEADER;
FILE_DESCRIPTION(('STEP AP214'),
    '1');
FILE_NAME('àðò. KRT106',
    '2014-09-22T15:57:19',
    ('Áàòóðà Àíäðåé Ïàâëîâè÷'),
    ('Ëåñòíè÷íûé öåíòåð'),
    'ASCON STEP Converter 1.3',
    'ASCON Math Kernel',
    '');
/*ïî âîïðîñàì îáðàùàòñÿ:
òåë 8 919 123 02 50
info@stairs.center*/
FILE_SCHEMA(('AUTOMOTIVE_DESIGN { 1 0 10303 214 3 1 1}'));
ENDSEC;

DATA;
#1=SHAPE_REPRESENTATION('NONE',(#2),#6);
#2=AXIS2_PLACEMENT_3D('',#3,#4,#5);
#3=CARTESIAN_POINT('',(0.,0.,0.));
#4=DIRECTION('',(0.,0.,1.));
#5=DIRECTION('',(1.,0.,0.));
#6=(GEOMETRIC_REPRESENTATION_CONTEXT(3)GLOBAL_UNCERTAINTY_ASSIGNED_CONTEXT((#8))
GLOBAL_UNIT_ASSIGNED_CONTEXT((#7,#9,#10))REPRESENTATION_CONTEXT('NONE','NONE'));
#7=(LENGTH_UNIT()NAMED_UNIT(*)SI_UNIT(.MILLI.,.METRE.));
#8=UNCERTAINTY_MEASURE_WITH_UNIT(LENGTH_MEASURE(1.E-005),#7,'NONE','NONE');
#9=(NAMED_UNIT(*)PLANE_ANGLE_UNIT()SI_UNIT($,.RADIAN.));
#10=(NAMED_UNIT(*)SI_UNIT($,.STERADIAN.)SOLID_ANGLE_UNIT());
#11=SHAPE_DEFINITION_REPRESENTATION(#12,#1);
#12=PRODUCT_DEFINITION_SHAPE('NONE','NONE',#13);
#13=PRODUCT_DEFINITION('','UNSPECIFIED',#14,#22);
#14=PRODUCT_DEFINITION_FORMATION_WITH_SPECIFIED_SOURCE('ANY','UNSPECIFIED',#15,.NOT_KNOWN.);
#15=PRODUCT('',' Äåòàëü','ïî âîïðîñàì îáðàùàòñÿ:
òåë 8 919 123 02 50
info@stairs.center',
(#25));
#16=PERSON('UNSPECIFIED','Áàòóðà Àíäðåé Ïàâëîâè÷','UNSPECIFIED',('UNSPECIFIED'),
('UNSPECIFIED'),('UNSPECIFIED'));
#17=ORGANIZATION('UNSPECIFIED','Ëåñòíè÷íûé öåíòåð','UNSPECIFIED');
#18=PERSON_AND_ORGANIZATION(#16,#17);
#19=PERSON_AND_ORGANIZATION_ROLE('design_owner');
#20=CC_DESIGN_PERSON_AND_ORGANIZATION_ASSIGNMENT(#18,#19,(#15));
#21=PRODUCT_RELATED_PRODUCT_CATEGORY('detail','',(#15));
#22=DESIGN_CONTEXT('detailed design',#23,'design');
#23=APPLICATION_CONTEXT('configuration controlled 3d designs of mechanical parts and assemblies');
#24=APPLICATION_PROTOCOL_DEFINITION('international standard','automotive_design',
2011,#23);
#25=MECHANICAL_CONTEXT('NONE',#23,'mechanical');
#26=CC_DESIGN_DATE_AND_TIME_ASSIGNMENT(#27,#31,(#13));
#27=DATE_AND_TIME(#28,#29);
#28=CALENDAR_DATE(0,1,1);
#29=LOCAL_TIME(0,0,0.,#30);
#30=COORDINATED_UNIVERSAL_TIME_OFFSET(0,0,.AHEAD.);
#31=DATE_TIME_ROLE('creation_date');
#32=CC_DESIGN_APPROVAL(#33,(#13));
#33=APPROVAL(#34,'UNSPECIFIED');
#34=APPROVAL_STATUS('not_yet_approved');
#35=APPROVAL_DATE_TIME(#36,#33);
#36=DATE_AND_TIME(#37,#38);
#37=CALENDAR_DATE(0,1,1);
#38=LOCAL_TIME(0,0,0.,#39);
#39=COORDINATED_UNIVERSAL_TIME_OFFSET(0,0,.AHEAD.);
#40=DERIVED_UNIT((#44,#41));
#41=DERIVED_UNIT_ELEMENT(#42,-1.);
#42=VOLUME_UNIT(#43);
#43=DIMENSIONAL_EXPONENTS(3.,0.,0.,0.,0.,0.,0.);
#44=(NAMED_UNIT($)MASS_UNIT()SI_UNIT($,.GRAM.));
#45=MANIFOLD_SOLID_BREP('',#46);
#46=CLOSED_SHELL('',(#58,#67,#76,#85));
#47=COLOUR_RGB($,0.564705882352941,0.564705882352941,0.564705882352941);
#48=FILL_AREA_STYLE_COLOUR($,#47);
#49=FILL_AREA_STYLE($,(#48));
#50=SURFACE_STYLE_FILL_AREA(#49);
#51=SURFACE_SIDE_STYLE('',(#50));
#52=SURFACE_STYLE_USAGE(.BOTH.,#51);
#53=PRESENTATION_STYLE_ASSIGNMENT((#52));
#54=MECHANICAL_DESIGN_GEOMETRIC_PRESENTATION_REPRESENTATION('NONE',(#55,#66,#75,
#84,#93),#6);
#55=STYLED_ITEM('',(#53),#45);
#56=ADVANCED_BREP_SHAPE_REPRESENTATION('NONE',(#45),#6);
#57=SHAPE_REPRESENTATION_RELATIONSHIP('','',#1,#56);
#58=ADVANCED_FACE('',(#94),#96,.T.);
#59=COLOUR_RGB($,0.564705882352941,0.564705882352941,0.564705882352941);
#60=FILL_AREA_STYLE_COLOUR($,#59);
#61=FILL_AREA_STYLE($,(#60));
#62=SURFACE_STYLE_FILL_AREA(#61);
#63=SURFACE_SIDE_STYLE('',(#62));
#64=SURFACE_STYLE_USAGE(.BOTH.,#63);
#65=PRESENTATION_STYLE_ASSIGNMENT((#64));
#66=STYLED_ITEM('',(#65),#58);
#67=ADVANCED_FACE('',(#101,#103),#105,.F.);
#68=COLOUR_RGB($,0.564705882352941,0.564705882352941,0.564705882352941);
#69=FILL_AREA_STYLE_COLOUR($,#68);
#70=FILL_AREA_STYLE($,(#69));
#71=SURFACE_STYLE_FILL_AREA(#70);
#72=SURFACE_SIDE_STYLE('',(#71));
#73=SURFACE_STYLE_USAGE(.BOTH.,#72);
#74=PRESENTATION_STYLE_ASSIGNMENT((#73));
#75=STYLED_ITEM('',(#74),#67);
#76=ADVANCED_FACE('',(#110),#112,.T.);
#77=COLOUR_RGB($,0.564705882352941,0.564705882352941,0.564705882352941);
#78=FILL_AREA_STYLE_COLOUR($,#77);
#79=FILL_AREA_STYLE($,(#78));
#80=SURFACE_STYLE_FILL_AREA(#79);
#81=SURFACE_SIDE_STYLE('',(#80));
#82=SURFACE_STYLE_USAGE(.BOTH.,#81);
#83=PRESENTATION_STYLE_ASSIGNMENT((#82));
#84=STYLED_ITEM('',(#83),#76);
#85=ADVANCED_FACE('',(#117,#119),#121,.F.);
#86=COLOUR_RGB($,0.564705882352941,0.564705882352941,0.564705882352941);
#87=FILL_AREA_STYLE_COLOUR($,#86);
#88=FILL_AREA_STYLE($,(#87));
#89=SURFACE_STYLE_FILL_AREA(#88);
#90=SURFACE_SIDE_STYLE('',(#89));
#91=SURFACE_STYLE_USAGE(.BOTH.,#90);
#92=PRESENTATION_STYLE_ASSIGNMENT((#91));
#93=STYLED_ITEM('',(#92),#85);
#94=FACE_OUTER_BOUND('',#95,.T.);
#95=EDGE_LOOP('',(#126));
#96=SPHERICAL_SURFACE('',#97,15.);
#97=AXIS2_PLACEMENT_3D('',#98,#99,#100);
#98=CARTESIAN_POINT('',(-9.18485099360515E-016,0.,0.));
#99=DIRECTION('',(-1.22464679914735E-016,0.,1.));
#100=DIRECTION('',(1.,0.,1.22464679914735E-016));
#101=FACE_OUTER_BOUND('',#102,.T.);
#102=EDGE_LOOP('',(#127));
#103=FACE_OUTER_BOUND('',#104,.T.);
#104=EDGE_LOOP('',(#128));
#105=CYLINDRICAL_SURFACE('',#106,3.);
#106=AXIS2_PLACEMENT_3D('',#107,#108,#109);
#107=CARTESIAN_POINT('',(0.,0.,-3.));
#108=DIRECTION('',(0.,0.,1.));
#109=DIRECTION('',(1.,0.,0.));
#110=FACE_BOUND('',#111,.T.);
#111=EDGE_LOOP('',(#129));
#112=PLANE('',#113);
#113=AXIS2_PLACEMENT_3D('',#114,#115,#116);
#114=CARTESIAN_POINT('',(0.,0.,-3.));
#115=DIRECTION('',(0.,0.,1.));
#116=DIRECTION('',(1.,0.,0.));
#117=FACE_OUTER_BOUND('',#118,.T.);
#118=EDGE_LOOP('',(#130));
#119=FACE_OUTER_BOUND('',#120,.T.);
#120=EDGE_LOOP('',(#131));
#121=CONICAL_SURFACE('',#122,3.94535351377405,0.855717957529671);
#122=AXIS2_PLACEMENT_3D('',#123,#124,#125);
#123=CARTESIAN_POINT('',(0.,0.,13.3593599150963));
#124=DIRECTION('',(-0.,0.,1.));
#125=DIRECTION('',(1.,0.,0.));
#126=ORIENTED_EDGE('',*,*,#132,.T.);
#127=ORIENTED_EDGE('',*,*,#133,.F.);
#128=ORIENTED_EDGE('',*,*,#134,.F.);
#129=ORIENTED_EDGE('',*,*,#134,.T.);
#130=ORIENTED_EDGE('',*,*,#132,.F.);
#131=ORIENTED_EDGE('',*,*,#133,.T.);
#132=EDGE_CURVE('',#135,#135,#136,.F.);
#133=EDGE_CURVE('',#137,#137,#138,.F.);
#134=EDGE_CURVE('',#139,#139,#140,.T.);
#135=VERTEX_POINT('',#141);
#136=CIRCLE('',#142,4.89070702754811);
#137=VERTEX_POINT('',#146);
#138=CIRCLE('',#147,3.);
#139=VERTEX_POINT('',#151);
#140=CIRCLE('',#152,3.);
#141=CARTESIAN_POINT('',(4.89070702754811,-5.59613158174287E-017,14.1803027037751));
#142=AXIS2_PLACEMENT_3D('',#143,#144,#145);
#143=CARTESIAN_POINT('',(-2.65507133107239E-015,0.,14.1803027037751));
#144=DIRECTION('',(-1.22464679914735E-016,0.,1.));
#145=DIRECTION('',(1.,0.,1.22464679914735E-016));
#146=CARTESIAN_POINT('',(3.,-3.67394039744206E-016,12.5384171264175));
#147=AXIS2_PLACEMENT_3D('',#148,#149,#150);
#148=CARTESIAN_POINT('',(0.,0.,12.5384171264175));
#149=DIRECTION('',(0.,0.,1.));
#150=DIRECTION('',(1.,0.,0.));
#151=CARTESIAN_POINT('',(3.,0.,-3.));
#152=AXIS2_PLACEMENT_3D('',#153,#154,#155);
#153=CARTESIAN_POINT('',(0.,0.,-3.));
#154=DIRECTION('',(0.,0.,1.));
#155=DIRECTION('',(1.,0.,0.));
ENDSEC;
END-ISO-10303-21;
