ISO-10303-21;
HEADER;
FILE_DESCRIPTION (( 'STEP AP214' ),
    '1' );
FILE_NAME ('àðò. KRT112.STEP',
    '2014-05-20T05:45:01',
    ( '' ),
    ( '' ),
    'SwSTEP 2.0',
    'SolidWorks 2014',
    '' );
FILE_SCHEMA (( 'AUTOMOTIVE_DESIGN' ));
ENDSEC;

DATA;
#1 = FILL_AREA_STYLE_COLOUR ( '', #44 ) ;
#2 = ORIENTED_EDGE ( 'NONE', *, *, #50, .T. ) ;
#3 = UNCERTAINTY_MEASURE_WITH_UNIT (LENGTH_MEASURE( 1.000000000000000100E-005 ), #89, 'distance_accuracy_value', 'NONE');
#4 = ADVANCED_FACE ( 'NONE', ( #19 ), #20, .T. ) ;
#5 = ADVANCED_FACE ( 'NONE', ( #85 ), #80, .T. ) ;
#6 = SURFACE_STYLE_FILL_AREA ( #10 ) ;
#7 = MECHANICAL_DESIGN_GEOMETRIC_PRESENTATION_REPRESENTATION (  '', ( #79 ), #59 ) ;
#8 = SHAPE_DEFINITION_REPRESENTATION ( #87, #65 ) ;
#9 = AXIS2_PLACEMENT_3D ( 'NONE', #90, #37, #24 ) ;
#10 = FILL_AREA_STYLE ('',( #1 ) ) ;
#11 = CIRCLE ( 'NONE', #47, 37.00000000000000000 ) ;
#12 = UNCERTAINTY_MEASURE_WITH_UNIT (LENGTH_MEASURE( 1.000000000000000100E-005 ), #77, 'distance_accuracy_value', 'NONE');
#13 = DIRECTION ( 'NONE',  ( 0.0000000000000000000, 0.0000000000000000000, -1.000000000000000000 ) ) ;
#14 = SURFACE_SIDE_STYLE ('',( #6 ) ) ;
#15 = PRODUCT_DEFINITION_FORMATION_WITH_SPECIFIED_SOURCE ( 'ANY', '', #75, .NOT_KNOWN. ) ;
#16 = ORIENTED_EDGE ( 'NONE', *, *, #40, .T. ) ;
#17 = CARTESIAN_POINT ( 'NONE',  ( 0.0000000000000000000, 0.0000000000000000000, 0.0000000000000000000 ) ) ;
#18 = SURFACE_STYLE_USAGE ( .BOTH. , #84 ) ;
#19 = FACE_OUTER_BOUND ( 'NONE', #74, .T. ) ;
#20 = SPHERICAL_SURFACE ( 'NONE', #32, 37.00000000000000000 ) ;
#21 = DIRECTION ( 'NONE',  ( 1.224646799147353200E-016, 0.0000000000000000000, -1.000000000000000000 ) ) ;
#22 =( NAMED_UNIT ( * ) SI_UNIT ( $, .STERADIAN. ) SOLID_ANGLE_UNIT ( ) );
#23 = APPLICATION_CONTEXT ( 'automotive_design' ) ;
#24 = DIRECTION ( 'NONE',  ( 1.000000000000000000, 0.0000000000000000000, 0.0000000000000000000 ) ) ;
#25 = APPLICATION_PROTOCOL_DEFINITION ( 'draft international standard', 'automotive_design', 1998, #38 ) ;
#26 = EDGE_LOOP ( 'NONE', ( #73, #16 ) ) ;
#27 = PRODUCT_DEFINITION_CONTEXT ( 'detailed design', #38, 'design' ) ;
#28 = CARTESIAN_POINT ( 'NONE',  ( 0.0000000000000000000, 0.0000000000000000000, 0.0000000000000000000 ) ) ;
#29 = DIRECTION ( 'NONE',  ( 0.0000000000000000000, 0.0000000000000000000, 1.000000000000000000 ) ) ;
#30 = CARTESIAN_POINT ( 'NONE',  ( 2.265596578422603400E-015, 37.00000000000000000, 0.0000000000000000000 ) ) ;
#31 = ORIENTED_EDGE ( 'NONE', *, *, #40, .F. ) ;
#32 = AXIS2_PLACEMENT_3D ( 'NONE', #17, #13, #83 ) ;
#33 = UNCERTAINTY_MEASURE_WITH_UNIT (LENGTH_MEASURE( 1.000000000000000100E-005 ), #58, 'distance_accuracy_value', 'NONE');
#34 = AXIS2_PLACEMENT_3D ( 'NONE', #28, #21, #57 ) ;
#35 = AXIS2_PLACEMENT_3D ( 'NONE', #45, #69, #56 ) ;
#36 = FILL_AREA_STYLE ('',( #62 ) ) ;
#37 = DIRECTION ( 'NONE',  ( 0.0000000000000000000, 0.0000000000000000000, 1.000000000000000000 ) ) ;
#38 = APPLICATION_CONTEXT ( 'automotive_design' ) ;
#39 = PRESENTATION_LAYER_ASSIGNMENT (  '', '', ( #42 ) ) ;
#40 = EDGE_CURVE ( 'NONE', #61, #49, #66, .T. ) ;
#41 =( NAMED_UNIT ( * ) SI_UNIT ( $, .STERADIAN. ) SOLID_ANGLE_UNIT ( ) );
#42 = STYLED_ITEM ( 'NONE', ( #51 ), #65 ) ;
#43 =( NAMED_UNIT ( * ) SI_UNIT ( $, .STERADIAN. ) SOLID_ANGLE_UNIT ( ) );
#44 = COLOUR_RGB ( '',0.8980392156862745400, 0.8980392156862745400, 0.8980392156862745400 ) ;
#45 = CARTESIAN_POINT ( 'NONE',  ( 0.0000000000000000000, 0.0000000000000000000, 0.0000000000000000000 ) ) ;
#46 = PRESENTATION_LAYER_ASSIGNMENT (  '', '', ( #79 ) ) ;
#47 = AXIS2_PLACEMENT_3D ( 'NONE', #68, #29, #88 ) ;
#48 = MANIFOLD_SOLID_BREP ( 'Ïîâåðíóòü1', #67 ) ;
#49 = VERTEX_POINT ( 'NONE', #30 ) ;
#50 = EDGE_CURVE ( 'NONE', #61, #49, #11, .T. ) ;
#51 = PRESENTATION_STYLE_ASSIGNMENT (( #18 ) ) ;
#52 = PRESENTATION_STYLE_ASSIGNMENT (( #63 ) ) ;
#53 = MECHANICAL_DESIGN_GEOMETRIC_PRESENTATION_REPRESENTATION (  '', ( #42 ), #86 ) ;
#54 = SURFACE_STYLE_FILL_AREA ( #36 ) ;
#55 =( NAMED_UNIT ( * ) PLANE_ANGLE_UNIT ( ) SI_UNIT ( $, .RADIAN. ) );
#56 = DIRECTION ( 'NONE',  ( 1.000000000000000000, 0.0000000000000000000, 0.0000000000000000000 ) ) ;
#57 = DIRECTION ( 'NONE',  ( -1.000000000000000000, 0.0000000000000000000, -1.224646799147353200E-016 ) ) ;
#58 =( LENGTH_UNIT ( ) NAMED_UNIT ( * ) SI_UNIT ( .MILLI., .METRE. ) );
#59 =( GEOMETRIC_REPRESENTATION_CONTEXT ( 3 ) GLOBAL_UNCERTAINTY_ASSIGNED_CONTEXT ( ( #3 ) ) GLOBAL_UNIT_ASSIGNED_CONTEXT ( ( #89, #55, #22 ) ) REPRESENTATION_CONTEXT ( 'NONE', 'WORKASPACE' ) );
#60 = PRODUCT_RELATED_PRODUCT_CATEGORY ( 'part', '', ( #75 ) ) ;
#61 = VERTEX_POINT ( 'NONE', #81 ) ;
#62 = FILL_AREA_STYLE_COLOUR ( '', #76 ) ;
#63 = SURFACE_STYLE_USAGE ( .BOTH. , #14 ) ;
#64 =( NAMED_UNIT ( * ) PLANE_ANGLE_UNIT ( ) SI_UNIT ( $, .RADIAN. ) );
#65 = ADVANCED_BREP_SHAPE_REPRESENTATION ( 'ð¨ª. KRT112', ( #48, #9 ), #78 ) ;
#66 = CIRCLE ( 'NONE', #34, 37.00000000000000000 ) ;
#67 = CLOSED_SHELL ( 'NONE', ( #5, #4 ) ) ;
#68 = CARTESIAN_POINT ( 'NONE',  ( 0.0000000000000000000, 0.0000000000000000000, 0.0000000000000000000 ) ) ;
#69 = DIRECTION ( 'NONE',  ( 0.0000000000000000000, 0.0000000000000000000, -1.000000000000000000 ) ) ;
#70 = APPLICATION_PROTOCOL_DEFINITION ( 'draft international standard', 'automotive_design', 1998, #23 ) ;
#71 = PRODUCT_CONTEXT ( 'NONE', #23, 'mechanical' ) ;
#72 = PRODUCT_DEFINITION ( 'UNKNOWN', '', #15, #27 ) ;
#73 = ORIENTED_EDGE ( 'NONE', *, *, #50, .F. ) ;
#74 = EDGE_LOOP ( 'NONE', ( #31, #2 ) ) ;
#75 = PRODUCT ( 'àðò. KRT112', 'àðò. KRT112', '', ( #71 ) ) ;
#76 = COLOUR_RGB ( '',0.8980392156862745400, 0.8980392156862745400, 0.8980392156862745400 ) ;
#77 =( LENGTH_UNIT ( ) NAMED_UNIT ( * ) SI_UNIT ( .MILLI., .METRE. ) );
#78 =( GEOMETRIC_REPRESENTATION_CONTEXT ( 3 ) GLOBAL_UNCERTAINTY_ASSIGNED_CONTEXT ( ( #12 ) ) GLOBAL_UNIT_ASSIGNED_CONTEXT ( ( #77, #82, #43 ) ) REPRESENTATION_CONTEXT ( 'NONE', 'WORKASPACE' ) );
#79 = STYLED_ITEM ( 'NONE', ( #52 ), #48 ) ;
#80 = SPHERICAL_SURFACE ( 'NONE', #35, 37.00000000000000000 ) ;
#81 = CARTESIAN_POINT ( 'NONE',  ( 2.265596578422603400E-015, -37.00000000000000000, 0.0000000000000000000 ) ) ;
#82 =( NAMED_UNIT ( * ) PLANE_ANGLE_UNIT ( ) SI_UNIT ( $, .RADIAN. ) );
#83 = DIRECTION ( 'NONE',  ( 1.000000000000000000, 0.0000000000000000000, 0.0000000000000000000 ) ) ;
#84 = SURFACE_SIDE_STYLE ('',( #54 ) ) ;
#85 = FACE_OUTER_BOUND ( 'NONE', #26, .T. ) ;
#86 =( GEOMETRIC_REPRESENTATION_CONTEXT ( 3 ) GLOBAL_UNCERTAINTY_ASSIGNED_CONTEXT ( ( #33 ) ) GLOBAL_UNIT_ASSIGNED_CONTEXT ( ( #58, #64, #41 ) ) REPRESENTATION_CONTEXT ( 'NONE', 'WORKASPACE' ) );
#87 = PRODUCT_DEFINITION_SHAPE ( 'NONE', 'NONE',  #72 ) ;
#88 = DIRECTION ( 'NONE',  ( 1.000000000000000000, 0.0000000000000000000, 0.0000000000000000000 ) ) ;
#89 =( LENGTH_UNIT ( ) NAMED_UNIT ( * ) SI_UNIT ( .MILLI., .METRE. ) );
#90 = CARTESIAN_POINT ( 'NONE',  ( 0.0000000000000000000, 0.0000000000000000000, 0.0000000000000000000 ) ) ;
ENDSEC;
END-ISO-10303-21;
