ISO-10303-21;
HEADER;
FILE_DESCRIPTION (( 'STEP AP214' ),
    '1' );
FILE_NAME ('àðò. KRT502.STEP',
    '2014-06-04T07:22:20',
    ( '' ),
    ( '' ),
    'SwSTEP 2.0',
    'SolidWorks 2014',
    '' );
FILE_SCHEMA (( 'AUTOMOTIVE_DESIGN' ));
ENDSEC;

DATA;
#1 = ORIENTED_EDGE ( 'NONE', *, *, #277, .T. ) ;
#2 = CARTESIAN_POINT ( 'NONE',  ( 3.041206217882593500E-015, 5.999999999999999100, 24.83333333333332900 ) ) ;
#3 = AXIS2_PLACEMENT_3D ( 'NONE', #138, #333, #193 ) ;
#4 = CARTESIAN_POINT ( 'NONE',  ( 3.451526021720623800E-015, 9.711340206185569800, 28.18384879725085300 ) ) ;
#5 = SURFACE_STYLE_USAGE ( .BOTH. , #307 ) ;
#6 = ADVANCED_FACE ( 'NONE', ( #7 ), #228, .F. ) ;
#7 = FACE_OUTER_BOUND ( 'NONE', #305, .T. ) ;
#8 = ORIENTED_EDGE ( 'NONE', *, *, #11, .F. ) ;
#9 = DIRECTION ( 'NONE',  ( 0.0000000000000000000, 0.0000000000000000000, -1.000000000000000000 ) ) ;
#10 = FACE_OUTER_BOUND ( 'NONE', #22, .T. ) ;
#11 = EDGE_CURVE ( 'NONE', #286, #194, #174, .T. ) ;
#12 = DIRECTION ( 'NONE',  ( 0.0000000000000000000, 0.0000000000000000000, -1.000000000000000000 ) ) ;
#13 = AXIS2_PLACEMENT_3D ( 'NONE', #350, #385, #211 ) ;
#14 = ADVANCED_FACE ( 'NONE', ( #250 ), #115, .F. ) ;
#15 = ORIENTED_EDGE ( 'NONE', *, *, #394, .F. ) ;
#16 = UNCERTAINTY_MEASURE_WITH_UNIT (LENGTH_MEASURE( 1.000000000000000100E-005 ), #200, 'distance_accuracy_value', 'NONE');
#17 = STYLED_ITEM ( 'NONE', ( #124 ), #175 ) ;
#18 = ADVANCED_FACE ( 'NONE', ( #10 ), #353, .F. ) ;
#19 = DIRECTION ( 'NONE',  ( 1.000000000000000000, 0.0000000000000000000, 0.0000000000000000000 ) ) ;
#20 = EDGE_CURVE ( 'NONE', #286, #153, #128, .T. ) ;
#21 = ORIENTED_EDGE ( 'NONE', *, *, #290, .F. ) ;
#22 = EDGE_LOOP ( 'NONE', ( #384, #188, #117, #144 ) ) ;
#23 = SURFACE_STYLE_FILL_AREA ( #299 ) ;
#24 = DIRECTION ( 'NONE',  ( 0.0000000000000000000, 0.0000000000000000000, 1.000000000000000000 ) ) ;
#25 = CARTESIAN_POINT ( 'NONE',  ( 3.410494041336821000E-015, 9.340206185567010900, 27.84879725085910000 ) ) ;
#26 = ORIENTED_EDGE ( 'NONE', *, *, #30, .F. ) ;
#27 = ORIENTED_EDGE ( 'NONE', *, *, #100, .F. ) ;
#28 = FACE_OUTER_BOUND ( 'NONE', #71, .T. ) ;
#29 = DIRECTION ( 'NONE',  ( 0.0000000000000000000, 0.0000000000000000000, 1.000000000000000000 ) ) ;
#30 = EDGE_CURVE ( 'NONE', #172, #93, #341, .T. ) ;
#31 = EDGE_LOOP ( 'NONE', ( #125, #238, #248, #319 ) ) ;
#32 = DIRECTION ( 'NONE',  ( 0.0000000000000000000, 0.0000000000000000000, 1.000000000000000000 ) ) ;
#33 = DIRECTION ( 'NONE',  ( -0.0000000000000000000, 1.000000000000000000, -0.0000000000000000000 ) ) ;
#34 = CIRCLE ( 'NONE', #84, 32.50000000000000000 ) ;
#35 = CARTESIAN_POINT ( 'NONE',  ( 3.041206217882593500E-015, 5.999999999999999100, 24.83333333333332900 ) ) ;
#36 = AXIS2_PLACEMENT_3D ( 'NONE', #41, #294, #366 ) ;
#37 = CARTESIAN_POINT ( 'NONE',  ( 0.0000000000000000000, 11.00000000000000000, 21.25000000000000400 ) ) ;
#38 = DIRECTION ( 'NONE',  ( -1.000000000000000000, 0.0000000000000000000, 0.0000000000000000000 ) ) ;
#39 = FACE_OUTER_BOUND ( 'NONE', #206, .T. ) ;
#40 = VECTOR ( 'NONE', #398, 1000.000000000000000 ) ;
#41 = CARTESIAN_POINT ( 'NONE',  ( 0.0000000000000000000, 0.0000000000000000000, 0.0000000000000000000 ) ) ;
#42 = CARTESIAN_POINT ( 'NONE',  ( 0.0000000000000000000, 0.0000000000000000000, -32.50000000000000000 ) ) ;
#43 = CARTESIAN_POINT ( 'NONE',  ( 0.0000000000000000000, 5.999999999999999100, -24.83333333333332900 ) ) ;
#44 = CARTESIAN_POINT ( 'NONE',  ( 0.0000000000000000000, 0.0000000000000000000, 0.0000000000000000000 ) ) ;
#45 = DIRECTION ( 'NONE',  ( 0.0000000000000000000, 0.0000000000000000000, -1.000000000000000000 ) ) ;
#46 = CARTESIAN_POINT ( 'NONE',  ( 0.0000000000000000000, 9.711340206185569800, 0.0000000000000000000 ) ) ;
#47 = EDGE_CURVE ( 'NONE', #300, #287, #110, .T. ) ;
#48 = CIRCLE ( 'NONE', #230, 4.500000000000000900 ) ;
#49 = COLOUR_RGB ( '',0.7921568627450980000, 0.8196078431372548800, 0.9333333333333333500 ) ;
#50 = APPLICATION_PROTOCOL_DEFINITION ( 'draft international standard', 'automotive_design', 1998, #231 ) ;
#51 = EDGE_CURVE ( 'NONE', #78, #286, #347, .T. ) ;
#52 = PRODUCT_DEFINITION_SHAPE ( 'NONE', 'NONE',  #196 ) ;
#53 = CARTESIAN_POINT ( 'NONE',  ( 2.377855868344443900E-015, 0.0000000000000000000, 19.41666666666666400 ) ) ;
#54 = EDGE_LOOP ( 'NONE', ( #26, #21 ) ) ;
#55 = ADVANCED_FACE ( 'NONE', ( #118 ), #195, .F. ) ;
#56 = AXIS2_PLACEMENT_3D ( 'NONE', #169, #79, #342 ) ;
#57 = AXIS2_PLACEMENT_3D ( 'NONE', #166, #365, #140 ) ;
#58 = AXIS2_PLACEMENT_3D ( 'NONE', #179, #187, #362 ) ;
#59 = ORIENTED_EDGE ( 'NONE', *, *, #290, .T. ) ;
#60 = ORIENTED_EDGE ( 'NONE', *, *, #176, .F. ) ;
#61 = FACE_OUTER_BOUND ( 'NONE', #152, .T. ) ;
#62 = DIRECTION ( 'NONE',  ( 0.0000000000000000000, 1.000000000000000000, 0.0000000000000000000 ) ) ;
#63 = DIRECTION ( 'NONE',  ( 0.0000000000000000000, 0.0000000000000000000, -1.000000000000000000 ) ) ;
#64 = CARTESIAN_POINT ( 'NONE',  ( 0.0000000000000000000, 11.00000000000000000, 0.0000000000000000000 ) ) ;
#65 = PRODUCT ( 'àðò. KRT502', 'àðò. KRT502', '', ( #180 ) ) ;
#66 = EDGE_LOOP ( 'NONE', ( #291, #8, #232, #1 ) ) ;
#67 = DIRECTION ( 'NONE',  ( 0.0000000000000000000, 0.0000000000000000000, -1.000000000000000000 ) ) ;
#68 = AXIS2_PLACEMENT_3D ( 'NONE', #141, #337, #168 ) ;
#69 = CIRCLE ( 'NONE', #357, 24.83333333333332900 ) ;
#70 = CARTESIAN_POINT ( 'NONE',  ( 0.0000000000000000000, 10.49999999999999800, 0.0000000000000000000 ) ) ;
#71 = EDGE_LOOP ( 'NONE', ( #27, #298, #154, #334 ) ) ;
#72 = DIRECTION ( 'NONE',  ( 0.0000000000000000000, 0.0000000000000000000, 1.000000000000000000 ) ) ;
#73 = CIRCLE ( 'NONE', #158, 32.50000000000000000 ) ;
#74 = DIRECTION ( 'NONE',  ( -0.0000000000000000000, -1.000000000000000000, -0.0000000000000000000 ) ) ;
#75 = CIRCLE ( 'NONE', #56, 27.84879725085910000 ) ;
#76 = CARTESIAN_POINT ( 'NONE',  ( 3.246366119801608400E-015, 11.00000000000000000, 24.83333333333332900 ) ) ;
#77 = AXIS2_PLACEMENT_3D ( 'NONE', #271, #221, #165 ) ;
#78 = VERTEX_POINT ( 'NONE', #372 ) ;
#79 = DIRECTION ( 'NONE',  ( -0.0000000000000000000, -1.000000000000000000, -0.0000000000000000000 ) ) ;
#80 = FACE_OUTER_BOUND ( 'NONE', #31, .T. ) ;
#81 = FILL_AREA_STYLE_COLOUR ( '', #49 ) ;
#82 = EDGE_CURVE ( 'NONE', #108, #78, #99, .T. ) ;
#83 = LINE ( 'NONE', #288, #257 ) ;
#84 = AXIS2_PLACEMENT_3D ( 'NONE', #44, #111, #336 ) ;
#85 = ORIENTED_EDGE ( 'NONE', *, *, #326, .T. ) ;
#86 = ORIENTED_EDGE ( 'NONE', *, *, #178, .F. ) ;
#87 = APPLICATION_CONTEXT ( 'automotive_design' ) ;
#88 = ORIENTED_EDGE ( 'NONE', *, *, #82, .T. ) ;
#89 = FACE_BOUND ( 'NONE', #282, .T. ) ;
#90 = PRODUCT_RELATED_PRODUCT_CATEGORY ( 'part', '', ( #65 ) ) ;
#91 = AXIS2_PLACEMENT_3D ( 'NONE', #123, #261, #183 ) ;
#92 = CARTESIAN_POINT ( 'NONE',  ( 0.0000000000000000000, 0.0000000000000000000, -32.00000000000000000 ) ) ;
#93 = VERTEX_POINT ( 'NONE', #76 ) ;
#94 = CARTESIAN_POINT ( 'NONE',  ( 0.0000000000000000000, 11.00000000000000000, -24.83333333333332900 ) ) ;
#95 = DIRECTION ( 'NONE',  ( 0.0000000000000000000, 1.000000000000000000, 0.0000000000000000000 ) ) ;
#96 = ORIENTED_EDGE ( 'NONE', *, *, #223, .F. ) ;
#97 = UNCERTAINTY_MEASURE_WITH_UNIT (LENGTH_MEASURE( 1.000000000000000100E-005 ), #304, 'distance_accuracy_value', 'NONE');
#98 = TOROIDAL_SURFACE ( 'NONE', #303, 19.41666666666666400, 13.08333333333333200 ) ;
#99 = CIRCLE ( 'NONE', #266, 24.83333333333332900 ) ;
#100 = EDGE_CURVE ( 'NONE', #262, #274, #316, .T. ) ;
#101 = DIRECTION ( 'NONE',  ( -0.0000000000000000000, -1.000000000000000000, -0.0000000000000000000 ) ) ;
#102 = CARTESIAN_POINT ( 'NONE',  ( 0.0000000000000000000, 10.49999999999999800, 21.25000000000000400 ) ) ;
#103 = DIRECTION ( 'NONE',  ( 0.0000000000000000000, 0.0000000000000000000, -1.000000000000000000 ) ) ;
#104 = CARTESIAN_POINT ( 'NONE',  ( 0.0000000000000000000, 0.0000000000000000000, 0.0000000000000000000 ) ) ;
#105 = DIRECTION ( 'NONE',  ( 0.0000000000000000000, 0.0000000000000000000, -1.000000000000000000 ) ) ;
#106 = DIRECTION ( 'NONE',  ( 0.0000000000000000000, 0.0000000000000000000, -1.000000000000000000 ) ) ;
#107 = FILL_AREA_STYLE_COLOUR ( '', #114 ) ;
#108 = VERTEX_POINT ( 'NONE', #370 ) ;
#109 = FACE_OUTER_BOUND ( 'NONE', #54, .T. ) ;
#110 = LINE ( 'NONE', #329, #40 ) ;
#111 = DIRECTION ( 'NONE',  ( -0.0000000000000000000, -1.000000000000000000, -0.0000000000000000000 ) ) ;
#112 = DIRECTION ( 'NONE',  ( -1.000000000000000000, 0.0000000000000000000, 0.0000000000000000000 ) ) ;
#113 = AXIS2_PLACEMENT_3D ( 'NONE', #318, #62, #24 ) ;
#114 = COLOUR_RGB ( '',0.7921568627450980000, 0.8196078431372548800, 0.9333333333333333500 ) ;
#115 = TOROIDAL_SURFACE ( 'NONE', #36, 19.41666666666666400, 12.58333333333333200 ) ;
#116 = AXIS2_PLACEMENT_3D ( 'NONE', #253, #237, #19 ) ;
#117 = ORIENTED_EDGE ( 'NONE', *, *, #51, .T. ) ;
#118 = FACE_OUTER_BOUND ( 'NONE', #263, .T. ) ;
#119 = ADVANCED_FACE ( 'NONE', ( #28 ), #302, .T. ) ;
#120 = AXIS2_PLACEMENT_3D ( 'NONE', #35, #392, #241 ) ;
#121 = ORIENTED_EDGE ( 'NONE', *, *, #82, .F. ) ;
#122 = SHAPE_DEFINITION_REPRESENTATION ( #52, #175 ) ;
#123 = CARTESIAN_POINT ( 'NONE',  ( 0.0000000000000000000, 0.0000000000000000000, 0.0000000000000000000 ) ) ;
#124 = PRESENTATION_STYLE_ASSIGNMENT (( #5 ) ) ;
#125 = ORIENTED_EDGE ( 'NONE', *, *, #30, .T. ) ;
#126 = ORIENTED_EDGE ( 'NONE', *, *, #47, .T. ) ;
#127 = AXIS2_PLACEMENT_3D ( 'NONE', #310, #317, #181 ) ;
#128 = CIRCLE ( 'NONE', #256, 12.58333333333333200 ) ;
#129 = CARTESIAN_POINT ( 'NONE',  ( 0.0000000000000000000, 5.999999999999999100, 0.0000000000000000000 ) ) ;
#130 = ORIENTED_EDGE ( 'NONE', *, *, #377, .F. ) ;
#131 = DIRECTION ( 'NONE',  ( -0.0000000000000000000, -1.000000000000000000, -0.0000000000000000000 ) ) ;
#132 = AXIS2_PLACEMENT_3D ( 'NONE', #272, #297, #105 ) ;
#133 = CARTESIAN_POINT ( 'NONE',  ( 0.0000000000000000000, 5.999999999999999100, 0.0000000000000000000 ) ) ;
#134 = CARTESIAN_POINT ( 'NONE',  ( 0.0000000000000000000, 11.00000000000000000, 0.0000000000000000000 ) ) ;
#135 = CARTESIAN_POINT ( 'NONE',  ( 2.602374448188126200E-015, 10.49999999999999800, -21.25000000000000400 ) ) ;
#136 = DIRECTION ( 'NONE',  ( -0.0000000000000000000, -1.000000000000000000, -0.0000000000000000000 ) ) ;
#137 = ORIENTED_EDGE ( 'NONE', *, *, #199, .F. ) ;
#138 = CARTESIAN_POINT ( 'NONE',  ( 0.0000000000000000000, 9.711340206185569800, 0.0000000000000000000 ) ) ;
#139 = CARTESIAN_POINT ( 'NONE',  ( 0.0000000000000000000, 9.340206185567010900, 0.0000000000000000000 ) ) ;
#140 = DIRECTION ( 'NONE',  ( 0.0000000000000000000, 0.0000000000000000000, -1.000000000000000000 ) ) ;
#141 = CARTESIAN_POINT ( 'NONE',  ( 0.0000000000000000000, 0.0000000000000000000, 0.0000000000000000000 ) ) ;
#142 = AXIS2_PLACEMENT_3D ( 'NONE', #70, #95, #32 ) ;
#143 = CARTESIAN_POINT ( 'NONE',  ( 0.0000000000000000000, 10.49999999999999800, 0.0000000000000000000 ) ) ;
#144 = ORIENTED_EDGE ( 'NONE', *, *, #11, .T. ) ;
#145 = CIRCLE ( 'NONE', #113, 21.25000000000000400 ) ;
#146 =( LENGTH_UNIT ( ) NAMED_UNIT ( * ) SI_UNIT ( .MILLI., .METRE. ) );
#147 = ORIENTED_EDGE ( 'NONE', *, *, #223, .T. ) ;
#148 = DIRECTION ( 'NONE',  ( 0.0000000000000000000, 0.0000000000000000000, 1.000000000000000000 ) ) ;
#149 = EDGE_LOOP ( 'NONE', ( #182, #59, #219, #15 ) ) ;
#150 = EDGE_CURVE ( 'NONE', #225, #300, #145, .T. ) ;
#151 = ORIENTED_EDGE ( 'NONE', *, *, #277, .F. ) ;
#152 = EDGE_LOOP ( 'NONE', ( #130, #373, #320, #255 ) ) ;
#153 = VERTEX_POINT ( 'NONE', #92 ) ;
#154 = ORIENTED_EDGE ( 'NONE', *, *, #343, .T. ) ;
#155 = CIRCLE ( 'NONE', #203, 5.000000000000000900 ) ;
#156 = ORIENTED_EDGE ( 'NONE', *, *, #199, .T. ) ;
#157 = ORIENTED_EDGE ( 'NONE', *, *, #51, .F. ) ;
#158 = AXIS2_PLACEMENT_3D ( 'NONE', #325, #131, #63 ) ;
#159 = FACE_OUTER_BOUND ( 'NONE', #351, .T. ) ;
#160 = CARTESIAN_POINT ( 'NONE',  ( 0.0000000000000000000, 11.00000000000000000, 0.0000000000000000000 ) ) ;
#161 = DIRECTION ( 'NONE',  ( 0.0000000000000000000, 0.0000000000000000000, -1.000000000000000000 ) ) ;
#162 = DIRECTION ( 'NONE',  ( -0.0000000000000000000, -1.000000000000000000, -0.0000000000000000000 ) ) ;
#163 = DIRECTION ( 'NONE',  ( -0.0000000000000000000, -1.000000000000000000, -0.0000000000000000000 ) ) ;
#164 = AXIS2_PLACEMENT_3D ( 'NONE', #133, #163, #161 ) ;
#165 = DIRECTION ( 'NONE',  ( 0.0000000000000000000, 0.0000000000000000000, 1.000000000000000000 ) ) ;
#166 = CARTESIAN_POINT ( 'NONE',  ( 0.0000000000000000000, 11.00000000000000000, 0.0000000000000000000 ) ) ;
#167 = TOROIDAL_SURFACE ( 'NONE', #363, 19.41666666666666400, 12.58333333333333200 ) ;
#168 = DIRECTION ( 'NONE',  ( 0.0000000000000000000, 0.0000000000000000000, 1.000000000000000000 ) ) ;
#169 = CARTESIAN_POINT ( 'NONE',  ( 0.0000000000000000000, 9.340206185567010900, 0.0000000000000000000 ) ) ;
#170 = DIRECTION ( 'NONE',  ( -1.000000000000000000, 0.0000000000000000000, 0.0000000000000000000 ) ) ;
#171 = ADVANCED_FACE ( 'NONE', ( #352, #39 ), #355, .T. ) ;
#172 = VERTEX_POINT ( 'NONE', #94 ) ;
#173 = DIRECTION ( 'NONE',  ( -0.0000000000000000000, -1.000000000000000000, -0.0000000000000000000 ) ) ;
#174 = CIRCLE ( 'NONE', #215, 27.84879725085910000 ) ;
#175 = ADVANCED_BREP_SHAPE_REPRESENTATION ( 'ð¨ª. KRT502', ( #356, #116 ), #292 ) ;
#176 = EDGE_CURVE ( 'NONE', #225, #328, #83, .T. ) ;
#177 = ADVANCED_FACE ( 'NONE', ( #186, #109 ), #260, .T. ) ;
#178 = EDGE_CURVE ( 'NONE', #340, #153, #279, .T. ) ;
#179 = CARTESIAN_POINT ( 'NONE',  ( 0.0000000000000000000, 0.0000000000000000000, 0.0000000000000000000 ) ) ;
#180 = PRODUCT_CONTEXT ( 'NONE', #231, 'mechanical' ) ;
#181 = DIRECTION ( 'NONE',  ( -1.224646799147353200E-016, 0.0000000000000000000, -1.000000000000000000 ) ) ;
#182 = ORIENTED_EDGE ( 'NONE', *, *, #189, .F. ) ;
#183 = DIRECTION ( 'NONE',  ( 0.0000000000000000000, 0.0000000000000000000, -1.000000000000000000 ) ) ;
#184 = AXIS2_PLACEMENT_3D ( 'NONE', #43, #112, #301 ) ;
#185 = ORIENTED_EDGE ( 'NONE', *, *, #354, .T. ) ;
#186 = FACE_BOUND ( 'NONE', #397, .T. ) ;
#187 = DIRECTION ( 'NONE',  ( -0.0000000000000000000, -1.000000000000000000, -0.0000000000000000000 ) ) ;
#188 = ORIENTED_EDGE ( 'NONE', *, *, #367, .F. ) ;
#189 = EDGE_CURVE ( 'NONE', #93, #262, #209, .T. ) ;
#190 = CIRCLE ( 'NONE', #3, 28.18384879725085300 ) ;
#191 = EDGE_CURVE ( 'NONE', #328, #287, #368, .T. ) ;
#192 = PLANE ( 'NONE',  #244 ) ;
#193 = DIRECTION ( 'NONE',  ( 0.0000000000000000000, 0.0000000000000000000, -1.000000000000000000 ) ) ;
#194 = VERTEX_POINT ( 'NONE', #25 ) ;
#195 = CYLINDRICAL_SURFACE ( 'NONE', #68, 21.25000000000000400 ) ;
#196 = PRODUCT_DEFINITION ( 'UNKNOWN', '', #213, #308 ) ;
#197 = CARTESIAN_POINT ( 'NONE',  ( 0.0000000000000000000, 10.49999999999999800, 0.0000000000000000000 ) ) ;
#198 = CARTESIAN_POINT ( 'NONE',  ( 0.0000000000000000000, 10.49999999999999800, 0.0000000000000000000 ) ) ;
#199 = EDGE_CURVE ( 'NONE', #300, #225, #324, .T. ) ;
#200 =( LENGTH_UNIT ( ) NAMED_UNIT ( * ) SI_UNIT ( .MILLI., .METRE. ) );
#201 = TOROIDAL_SURFACE ( 'NONE', #359, 24.83333333333332900, 5.000000000000000000 ) ;
#202 = ADVANCED_FACE ( 'NONE', ( #296 ), #98, .T. ) ;
#203 = AXIS2_PLACEMENT_3D ( 'NONE', #278, #170, #148 ) ;
#204 = SURFACE_STYLE_FILL_AREA ( #281 ) ;
#205 =( NAMED_UNIT ( * ) SI_UNIT ( $, .STERADIAN. ) SOLID_ANGLE_UNIT ( ) );
#206 = EDGE_LOOP ( 'NONE', ( #185, #214 ) ) ;
#207 = PRESENTATION_LAYER_ASSIGNMENT (  '', '', ( #259 ) ) ;
#208 = ADVANCED_FACE ( 'NONE', ( #235 ), #201, .T. ) ;
#209 = CIRCLE ( 'NONE', #120, 5.000000000000000900 ) ;
#210 = EDGE_CURVE ( 'NONE', #274, #295, #73, .T. ) ;
#211 = DIRECTION ( 'NONE',  ( 0.0000000000000000000, 0.0000000000000000000, -1.000000000000000000 ) ) ;
#212 = DIRECTION ( 'NONE',  ( -0.0000000000000000000, 1.000000000000000000, -0.0000000000000000000 ) ) ;
#213 = PRODUCT_DEFINITION_FORMATION_WITH_SPECIFIED_SOURCE ( 'ANY', '', #65, .NOT_KNOWN. ) ;
#214 = ORIENTED_EDGE ( 'NONE', *, *, #210, .T. ) ;
#215 = AXIS2_PLACEMENT_3D ( 'NONE', #139, #369, #402 ) ;
#216 = DIRECTION ( 'NONE',  ( 0.0000000000000000000, 0.0000000000000000000, -1.000000000000000000 ) ) ;
#217 = CARTESIAN_POINT ( 'NONE',  ( 0.0000000000000000000, 9.711340206185569800, -28.18384879725085300 ) ) ;
#218 = CARTESIAN_POINT ( 'NONE',  ( 3.918869757271530300E-015, 0.0000000000000000000, 32.00000000000000000 ) ) ;
#219 = ORIENTED_EDGE ( 'NONE', *, *, #374, .T. ) ;
#220 = DIRECTION ( 'NONE',  ( -1.224646799147352700E-016, 0.0000000000000000000, -1.000000000000000000 ) ) ;
#221 = DIRECTION ( 'NONE',  ( -1.000000000000000000, 0.0000000000000000000, 0.0000000000000000000 ) ) ;
#222 = CIRCLE ( 'NONE', #311, 28.18384879725085300 ) ;
#223 = EDGE_CURVE ( 'NONE', #287, #328, #242, .T. ) ;
#224 = DIRECTION ( 'NONE',  ( -0.0000000000000000000, -1.000000000000000000, -0.0000000000000000000 ) ) ;
#225 = VERTEX_POINT ( 'NONE', #102 ) ;
#226 = VERTEX_POINT ( 'NONE', #217 ) ;
#227 = TOROIDAL_SURFACE ( 'NONE', #164, 24.83333333333332900, 5.000000000000000000 ) ;
#228 = CYLINDRICAL_SURFACE ( 'NONE', #240, 21.25000000000000400 ) ;
#229 =( NAMED_UNIT ( * ) SI_UNIT ( $, .STERADIAN. ) SOLID_ANGLE_UNIT ( ) );
#230 = AXIS2_PLACEMENT_3D ( 'NONE', #2, #400, #220 ) ;
#231 = APPLICATION_CONTEXT ( 'automotive_design' ) ;
#232 = ORIENTED_EDGE ( 'NONE', *, *, #20, .T. ) ;
#233 = CLOSED_SHELL ( 'NONE', ( #55, #254, #284, #202, #313, #177, #208, #119, #171, #312, #18, #14, #6 ) ) ;
#234 = ORIENTED_EDGE ( 'NONE', *, *, #314, .T. ) ;
#235 = FACE_OUTER_BOUND ( 'NONE', #149, .T. ) ;
#236 = AXIS2_PLACEMENT_3D ( 'NONE', #64, #243, #265 ) ;
#237 = DIRECTION ( 'NONE',  ( 0.0000000000000000000, 0.0000000000000000000, 1.000000000000000000 ) ) ;
#238 = ORIENTED_EDGE ( 'NONE', *, *, #189, .T. ) ;
#239 = MECHANICAL_DESIGN_GEOMETRIC_PRESENTATION_REPRESENTATION (  '', ( #17 ), #381 ) ;
#240 = AXIS2_PLACEMENT_3D ( 'NONE', #104, #33, #401 ) ;
#241 = DIRECTION ( 'NONE',  ( -1.224646799147352700E-016, 0.0000000000000000000, -1.000000000000000000 ) ) ;
#242 = CIRCLE ( 'NONE', #321, 21.25000000000000400 ) ;
#243 = DIRECTION ( 'NONE',  ( 0.0000000000000000000, 1.000000000000000000, 0.0000000000000000000 ) ) ;
#244 = AXIS2_PLACEMENT_3D ( 'NONE', #197, #251, #246 ) ;
#245 = CARTESIAN_POINT ( 'NONE',  ( 0.0000000000000000000, 0.0000000000000000000, 0.0000000000000000000 ) ) ;
#246 = DIRECTION ( 'NONE',  ( 0.0000000000000000000, -0.0000000000000000000, 1.000000000000000000 ) ) ;
#247 = SURFACE_STYLE_USAGE ( .BOTH. , #331 ) ;
#248 = ORIENTED_EDGE ( 'NONE', *, *, #326, .F. ) ;
#249 = CARTESIAN_POINT ( 'NONE',  ( 3.980102097228898600E-015, 0.0000000000000000000, 32.50000000000000000 ) ) ;
#250 = FACE_OUTER_BOUND ( 'NONE', #66, .T. ) ;
#251 = DIRECTION ( 'NONE',  ( 0.0000000000000000000, 1.000000000000000000, 0.0000000000000000000 ) ) ;
#252 =( NAMED_UNIT ( * ) SI_UNIT ( $, .STERADIAN. ) SOLID_ANGLE_UNIT ( ) );
#253 = CARTESIAN_POINT ( 'NONE',  ( 0.0000000000000000000, 0.0000000000000000000, 0.0000000000000000000 ) ) ;
#254 = ADVANCED_FACE ( 'NONE', ( #61 ), #167, .F. ) ;
#255 = ORIENTED_EDGE ( 'NONE', *, *, #20, .F. ) ;
#256 = AXIS2_PLACEMENT_3D ( 'NONE', #275, #38, #72 ) ;
#257 = VECTOR ( 'NONE', #212, 1000.000000000000000 ) ;
#258 = CIRCLE ( 'NONE', #77, 13.08333333333333200 ) ;
#259 = STYLED_ITEM ( 'NONE', ( #330 ), #356 ) ;
#260 = PLANE ( 'NONE',  #335 ) ;
#261 = DIRECTION ( 'NONE',  ( -0.0000000000000000000, -1.000000000000000000, -0.0000000000000000000 ) ) ;
#262 = VERTEX_POINT ( 'NONE', #4 ) ;
#263 = EDGE_LOOP ( 'NONE', ( #137, #126, #147, #60 ) ) ;
#264 = TOROIDAL_SURFACE ( 'NONE', #383, 24.83333333333332900, 4.500000000000000900 ) ;
#265 = DIRECTION ( 'NONE',  ( 0.0000000000000000000, 0.0000000000000000000, 1.000000000000000000 ) ) ;
#266 = AXIS2_PLACEMENT_3D ( 'NONE', #198, #224, #45 ) ;
#267 = ORIENTED_EDGE ( 'NONE', *, *, #367, .T. ) ;
#268 = FACE_OUTER_BOUND ( 'NONE', #327, .T. ) ;
#269 = DIRECTION ( 'NONE',  ( -0.0000000000000000000, -1.000000000000000000, -0.0000000000000000000 ) ) ;
#270 = DIRECTION ( 'NONE',  ( 0.0000000000000000000, 0.0000000000000000000, -1.000000000000000000 ) ) ;
#271 = CARTESIAN_POINT ( 'NONE',  ( 0.0000000000000000000, 0.0000000000000000000, -19.41666666666666400 ) ) ;
#272 = CARTESIAN_POINT ( 'NONE',  ( 0.0000000000000000000, 0.0000000000000000000, 0.0000000000000000000 ) ) ;
#273 = ORIENTED_EDGE ( 'NONE', *, *, #150, .T. ) ;
#274 = VERTEX_POINT ( 'NONE', #249 ) ;
#275 = CARTESIAN_POINT ( 'NONE',  ( 0.0000000000000000000, 0.0000000000000000000, -19.41666666666666400 ) ) ;
#276 = AXIS2_PLACEMENT_3D ( 'NONE', #134, #74, #106 ) ;
#277 = EDGE_CURVE ( 'NONE', #153, #340, #315, .T. ) ;
#278 = CARTESIAN_POINT ( 'NONE',  ( 0.0000000000000000000, 5.999999999999999100, -24.83333333333332900 ) ) ;
#279 = CIRCLE ( 'NONE', #58, 32.00000000000000000 ) ;
#280 = MECHANICAL_DESIGN_GEOMETRIC_PRESENTATION_REPRESENTATION (  '', ( #259 ), #348 ) ;
#281 = FILL_AREA_STYLE ('',( #81 ) ) ;
#282 = EDGE_LOOP ( 'NONE', ( #273, #156 ) ) ;
#283 = ORIENTED_EDGE ( 'NONE', *, *, #191, .T. ) ;
#284 = ADVANCED_FACE ( 'NONE', ( #159 ), #264, .F. ) ;
#285 = APPLICATION_PROTOCOL_DEFINITION ( 'draft international standard', 'automotive_design', 1998, #87 ) ;
#286 = VERTEX_POINT ( 'NONE', #293 ) ;
#287 = VERTEX_POINT ( 'NONE', #364 ) ;
#288 = CARTESIAN_POINT ( 'NONE',  ( 0.0000000000000000000, 0.0000000000000000000, 21.25000000000000400 ) ) ;
#289 = DIRECTION ( 'NONE',  ( 0.0000000000000000000, 1.000000000000000000, 0.0000000000000000000 ) ) ;
#290 = EDGE_CURVE ( 'NONE', #93, #172, #393, .T. ) ;
#291 = ORIENTED_EDGE ( 'NONE', *, *, #387, .F. ) ;
#292 =( GEOMETRIC_REPRESENTATION_CONTEXT ( 3 ) GLOBAL_UNCERTAINTY_ASSIGNED_CONTEXT ( ( #16 ) ) GLOBAL_UNIT_ASSIGNED_CONTEXT ( ( #200, #376, #252 ) ) REPRESENTATION_CONTEXT ( 'NONE', 'WORKASPACE' ) );
#293 = CARTESIAN_POINT ( 'NONE',  ( 0.0000000000000000000, 9.340206185567010900, -27.84879725085910000 ) ) ;
#294 = DIRECTION ( 'NONE',  ( -0.0000000000000000000, -1.000000000000000000, -0.0000000000000000000 ) ) ;
#295 = VERTEX_POINT ( 'NONE', #42 ) ;
#296 = FACE_OUTER_BOUND ( 'NONE', #380, .T. ) ;
#297 = DIRECTION ( 'NONE',  ( -0.0000000000000000000, -1.000000000000000000, -0.0000000000000000000 ) ) ;
#298 = ORIENTED_EDGE ( 'NONE', *, *, #394, .T. ) ;
#299 = FILL_AREA_STYLE ('',( #107 ) ) ;
#300 = VERTEX_POINT ( 'NONE', #135 ) ;
#301 = DIRECTION ( 'NONE',  ( 0.0000000000000000000, 0.0000000000000000000, 1.000000000000000000 ) ) ;
#302 = TOROIDAL_SURFACE ( 'NONE', #91, 19.41666666666666400, 13.08333333333333200 ) ;
#303 = AXIS2_PLACEMENT_3D ( 'NONE', #245, #389, #67 ) ;
#304 =( LENGTH_UNIT ( ) NAMED_UNIT ( * ) SI_UNIT ( .MILLI., .METRE. ) );
#305 = EDGE_LOOP ( 'NONE', ( #399, #323, #306, #283 ) ) ;
#306 = ORIENTED_EDGE ( 'NONE', *, *, #176, .T. ) ;
#307 = SURFACE_SIDE_STYLE ('',( #204 ) ) ;
#308 = PRODUCT_DEFINITION_CONTEXT ( 'detailed design', #87, 'design' ) ;
#309 = DIRECTION ( 'NONE',  ( 1.000000000000000000, 0.0000000000000000000, -1.224646799147353200E-016 ) ) ;
#310 = CARTESIAN_POINT ( 'NONE',  ( 2.377855868344443900E-015, 0.0000000000000000000, 19.41666666666666400 ) ) ;
#311 = AXIS2_PLACEMENT_3D ( 'NONE', #46, #173, #9 ) ;
#312 = ADVANCED_FACE ( 'NONE', ( #89, #268 ), #192, .F. ) ;
#313 = ADVANCED_FACE ( 'NONE', ( #80 ), #227, .T. ) ;
#314 = EDGE_CURVE ( 'NONE', #108, #194, #48, .T. ) ;
#315 = CIRCLE ( 'NONE', #132, 32.00000000000000000 ) ;
#316 = CIRCLE ( 'NONE', #127, 13.08333333333333200 ) ;
#317 = DIRECTION ( 'NONE',  ( 1.000000000000000000, 0.0000000000000000000, -1.224646799147353200E-016 ) ) ;
#318 = CARTESIAN_POINT ( 'NONE',  ( 0.0000000000000000000, 10.49999999999999800, 0.0000000000000000000 ) ) ;
#319 = ORIENTED_EDGE ( 'NONE', *, *, #374, .F. ) ;
#320 = ORIENTED_EDGE ( 'NONE', *, *, #178, .T. ) ;
#321 = AXIS2_PLACEMENT_3D ( 'NONE', #160, #361, #29 ) ;
#322 = DIRECTION ( 'NONE',  ( 0.0000000000000000000, -0.0000000000000000000, 1.000000000000000000 ) ) ;
#323 = ORIENTED_EDGE ( 'NONE', *, *, #150, .F. ) ;
#324 = CIRCLE ( 'NONE', #142, 21.25000000000000400 ) ;
#325 = CARTESIAN_POINT ( 'NONE',  ( 0.0000000000000000000, 0.0000000000000000000, 0.0000000000000000000 ) ) ;
#326 = EDGE_CURVE ( 'NONE', #226, #262, #190, .T. ) ;
#327 = EDGE_LOOP ( 'NONE', ( #267, #88 ) ) ;
#328 = VERTEX_POINT ( 'NONE', #37 ) ;
#329 = CARTESIAN_POINT ( 'NONE',  ( 2.602374448188126200E-015, 0.0000000000000000000, -21.25000000000000400 ) ) ;
#330 = PRESENTATION_STYLE_ASSIGNMENT (( #247 ) ) ;
#331 = SURFACE_SIDE_STYLE ('',( #23 ) ) ;
#332 = DIRECTION ( 'NONE',  ( 0.0000000000000000000, 0.0000000000000000000, -1.000000000000000000 ) ) ;
#333 = DIRECTION ( 'NONE',  ( -0.0000000000000000000, -1.000000000000000000, -0.0000000000000000000 ) ) ;
#334 = ORIENTED_EDGE ( 'NONE', *, *, #210, .F. ) ;
#335 = AXIS2_PLACEMENT_3D ( 'NONE', #388, #289, #322 ) ;
#336 = DIRECTION ( 'NONE',  ( 0.0000000000000000000, 0.0000000000000000000, -1.000000000000000000 ) ) ;
#337 = DIRECTION ( 'NONE',  ( -0.0000000000000000000, 1.000000000000000000, -0.0000000000000000000 ) ) ;
#338 = ORIENTED_EDGE ( 'NONE', *, *, #354, .F. ) ;
#339 = AXIS2_PLACEMENT_3D ( 'NONE', #53, #309, #346 ) ;
#340 = VERTEX_POINT ( 'NONE', #218 ) ;
#341 = CIRCLE ( 'NONE', #276, 24.83333333333332900 ) ;
#342 = DIRECTION ( 'NONE',  ( 0.0000000000000000000, 0.0000000000000000000, -1.000000000000000000 ) ) ;
#343 = EDGE_CURVE ( 'NONE', #226, #295, #258, .T. ) ;
#344 = UNCERTAINTY_MEASURE_WITH_UNIT (LENGTH_MEASURE( 1.000000000000000100E-005 ), #146, 'distance_accuracy_value', 'NONE');
#345 =( NAMED_UNIT ( * ) PLANE_ANGLE_UNIT ( ) SI_UNIT ( $, .RADIAN. ) );
#346 = DIRECTION ( 'NONE',  ( -1.224646799147353200E-016, 0.0000000000000000000, -1.000000000000000000 ) ) ;
#347 = CIRCLE ( 'NONE', #184, 4.500000000000000900 ) ;
#348 =( GEOMETRIC_REPRESENTATION_CONTEXT ( 3 ) GLOBAL_UNCERTAINTY_ASSIGNED_CONTEXT ( ( #97 ) ) GLOBAL_UNIT_ASSIGNED_CONTEXT ( ( #304, #375, #229 ) ) REPRESENTATION_CONTEXT ( 'NONE', 'WORKASPACE' ) );
#349 = AXIS2_PLACEMENT_3D ( 'NONE', #396, #136, #270 ) ;
#350 = CARTESIAN_POINT ( 'NONE',  ( 0.0000000000000000000, 0.0000000000000000000, 0.0000000000000000000 ) ) ;
#351 = EDGE_LOOP ( 'NONE', ( #121, #234, #390, #157 ) ) ;
#352 = FACE_BOUND ( 'NONE', #386, .T. ) ;
#353 = TOROIDAL_SURFACE ( 'NONE', #349, 24.83333333333332900, 4.500000000000000900 ) ;
#354 = EDGE_CURVE ( 'NONE', #295, #274, #34, .T. ) ;
#355 = PLANE ( 'NONE',  #13 ) ;
#356 = MANIFOLD_SOLID_BREP ( 'Âûðåç-Âûòÿíóòü1', #233 ) ;
#357 = AXIS2_PLACEMENT_3D ( 'NONE', #143, #378, #12 ) ;
#358 = ORIENTED_EDGE ( 'NONE', *, *, #191, .F. ) ;
#359 = AXIS2_PLACEMENT_3D ( 'NONE', #129, #101, #216 ) ;
#360 = ORIENTED_EDGE ( 'NONE', *, *, #100, .T. ) ;
#361 = DIRECTION ( 'NONE',  ( 0.0000000000000000000, 1.000000000000000000, 0.0000000000000000000 ) ) ;
#362 = DIRECTION ( 'NONE',  ( 0.0000000000000000000, 0.0000000000000000000, -1.000000000000000000 ) ) ;
#363 = AXIS2_PLACEMENT_3D ( 'NONE', #395, #269, #103 ) ;
#364 = CARTESIAN_POINT ( 'NONE',  ( 2.602374448188126200E-015, 11.00000000000000000, -21.25000000000000400 ) ) ;
#365 = DIRECTION ( 'NONE',  ( -0.0000000000000000000, -1.000000000000000000, -0.0000000000000000000 ) ) ;
#366 = DIRECTION ( 'NONE',  ( 0.0000000000000000000, 0.0000000000000000000, -1.000000000000000000 ) ) ;
#367 = EDGE_CURVE ( 'NONE', #78, #108, #69, .T. ) ;
#368 = CIRCLE ( 'NONE', #236, 21.25000000000000400 ) ;
#369 = DIRECTION ( 'NONE',  ( -0.0000000000000000000, -1.000000000000000000, -0.0000000000000000000 ) ) ;
#370 = CARTESIAN_POINT ( 'NONE',  ( 3.225850129609706900E-015, 10.49999999999999800, 24.83333333333332900 ) ) ;
#371 = CARTESIAN_POINT ( 'NONE',  ( 0.0000000000000000000, 5.999999999999999100, 0.0000000000000000000 ) ) ;
#372 = CARTESIAN_POINT ( 'NONE',  ( 0.0000000000000000000, 10.49999999999999800, -24.83333333333332900 ) ) ;
#373 = ORIENTED_EDGE ( 'NONE', *, *, #387, .T. ) ;
#374 = EDGE_CURVE ( 'NONE', #172, #226, #155, .T. ) ;
#375 =( NAMED_UNIT ( * ) PLANE_ANGLE_UNIT ( ) SI_UNIT ( $, .RADIAN. ) );
#376 =( NAMED_UNIT ( * ) PLANE_ANGLE_UNIT ( ) SI_UNIT ( $, .RADIAN. ) );
#377 = EDGE_CURVE ( 'NONE', #194, #286, #75, .T. ) ;
#378 = DIRECTION ( 'NONE',  ( -0.0000000000000000000, -1.000000000000000000, -0.0000000000000000000 ) ) ;
#379 = ORIENTED_EDGE ( 'NONE', *, *, #343, .F. ) ;
#380 = EDGE_LOOP ( 'NONE', ( #85, #360, #338, #379 ) ) ;
#381 =( GEOMETRIC_REPRESENTATION_CONTEXT ( 3 ) GLOBAL_UNCERTAINTY_ASSIGNED_CONTEXT ( ( #344 ) ) GLOBAL_UNIT_ASSIGNED_CONTEXT ( ( #146, #345, #205 ) ) REPRESENTATION_CONTEXT ( 'NONE', 'WORKASPACE' ) );
#382 = CIRCLE ( 'NONE', #339, 12.58333333333333200 ) ;
#383 = AXIS2_PLACEMENT_3D ( 'NONE', #371, #162, #332 ) ;
#384 = ORIENTED_EDGE ( 'NONE', *, *, #314, .F. ) ;
#385 = DIRECTION ( 'NONE',  ( 0.0000000000000000000, -1.000000000000000000, -0.0000000000000000000 ) ) ;
#386 = EDGE_LOOP ( 'NONE', ( #151, #86 ) ) ;
#387 = EDGE_CURVE ( 'NONE', #194, #340, #382, .T. ) ;
#388 = CARTESIAN_POINT ( 'NONE',  ( 0.0000000000000000000, 11.00000000000000000, 0.0000000000000000000 ) ) ;
#389 = DIRECTION ( 'NONE',  ( -0.0000000000000000000, -1.000000000000000000, -0.0000000000000000000 ) ) ;
#390 = ORIENTED_EDGE ( 'NONE', *, *, #377, .T. ) ;
#391 = PRESENTATION_LAYER_ASSIGNMENT (  '', '', ( #17 ) ) ;
#392 = DIRECTION ( 'NONE',  ( 1.000000000000000000, 0.0000000000000000000, -1.224646799147353200E-016 ) ) ;
#393 = CIRCLE ( 'NONE', #57, 24.83333333333332900 ) ;
#394 = EDGE_CURVE ( 'NONE', #262, #226, #222, .T. ) ;
#395 = CARTESIAN_POINT ( 'NONE',  ( 0.0000000000000000000, 0.0000000000000000000, 0.0000000000000000000 ) ) ;
#396 = CARTESIAN_POINT ( 'NONE',  ( 0.0000000000000000000, 5.999999999999999100, 0.0000000000000000000 ) ) ;
#397 = EDGE_LOOP ( 'NONE', ( #358, #96 ) ) ;
#398 = DIRECTION ( 'NONE',  ( -0.0000000000000000000, 1.000000000000000000, -0.0000000000000000000 ) ) ;
#399 = ORIENTED_EDGE ( 'NONE', *, *, #47, .F. ) ;
#400 = DIRECTION ( 'NONE',  ( 1.000000000000000000, 0.0000000000000000000, -1.224646799147353200E-016 ) ) ;
#401 = DIRECTION ( 'NONE',  ( 0.0000000000000000000, 0.0000000000000000000, 1.000000000000000000 ) ) ;
#402 = DIRECTION ( 'NONE',  ( 0.0000000000000000000, 0.0000000000000000000, -1.000000000000000000 ) ) ;
ENDSEC;
END-ISO-10303-21;
