ISO-10303-21;
HEADER;
FILE_DESCRIPTION (( 'STEP AP214' ),
    '1' );
FILE_NAME ('àðò. KRT507.STEP',
    '2014-06-04T08:15:10',
    ( '' ),
    ( '' ),
    'SwSTEP 2.0',
    'SolidWorks 2014',
    '' );
FILE_SCHEMA (( 'AUTOMOTIVE_DESIGN' ));
ENDSEC;

DATA;
#1 = EDGE_CURVE ( 'NONE', #352, #222, #368, .T. ) ;
#2 = CARTESIAN_POINT ( 'NONE',  ( 0.0000000000000000000, 0.0000000000000000000, 0.0000000000000000000 ) ) ;
#3 = CARTESIAN_POINT ( 'NONE',  ( 0.0000000000000000000, 0.0000000000000000000, 0.0000000000000000000 ) ) ;
#4 = EDGE_CURVE ( 'NONE', #111, #121, #326, .T. ) ;
#5 = DIRECTION ( 'NONE',  ( 0.0000000000000000000, 0.0000000000000000000, -1.000000000000000000 ) ) ;
#6 = ORIENTED_EDGE ( 'NONE', *, *, #395, .F. ) ;
#7 = DIRECTION ( 'NONE',  ( 0.0000000000000000000, 0.0000000000000000000, -1.000000000000000000 ) ) ;
#8 = EDGE_CURVE ( 'NONE', #281, #352, #98, .T. ) ;
#9 = SURFACE_STYLE_FILL_AREA ( #250 ) ;
#10 = CARTESIAN_POINT ( 'NONE',  ( 0.0000000000000000000, 9.779999999999997600, -24.17439878428239600 ) ) ;
#11 = ORIENTED_EDGE ( 'NONE', *, *, #16, .T. ) ;
#12 = DIRECTION ( 'NONE',  ( -0.0000000000000000000, -1.000000000000000000, -0.0000000000000000000 ) ) ;
#13 = UNCERTAINTY_MEASURE_WITH_UNIT (LENGTH_MEASURE( 1.000000000000000100E-005 ), #262, 'distance_accuracy_value', 'NONE');
#14 = CARTESIAN_POINT ( 'NONE',  ( 0.0000000000000000000, 11.00000000000000000, 0.0000000000000000000 ) ) ;
#15 = CIRCLE ( 'NONE', #391, 4.500000000000000900 ) ;
#16 = EDGE_CURVE ( 'NONE', #157, #158, #226, .T. ) ;
#17 = PLANE ( 'NONE',  #86 ) ;
#18 = ADVANCED_FACE ( 'NONE', ( #285 ), #205, .F. ) ;
#19 = FACE_OUTER_BOUND ( 'NONE', #313, .T. ) ;
#20 = ORIENTED_EDGE ( 'NONE', *, *, #266, .F. ) ;
#21 = CARTESIAN_POINT ( 'NONE',  ( 2.661495495882872600E-015, 5.999999999999999100, 21.73275999035729800 ) ) ;
#22 = DIRECTION ( 'NONE',  ( -0.0000000000000000000, -1.000000000000000000, -0.0000000000000000000 ) ) ;
#23 = EDGE_CURVE ( 'NONE', #63, #339, #178, .T. ) ;
#24 = ADVANCED_FACE ( 'NONE', ( #93, #329 ), #17, .F. ) ;
#25 = ADVANCED_FACE ( 'NONE', ( #354 ), #337, .T. ) ;
#26 = PRODUCT_CONTEXT ( 'NONE', #332, 'mechanical' ) ;
#27 = DIRECTION ( 'NONE',  ( -0.0000000000000000000, -1.000000000000000000, -0.0000000000000000000 ) ) ;
#28 = ORIENTED_EDGE ( 'NONE', *, *, #363, .F. ) ;
#29 = AXIS2_PLACEMENT_3D ( 'NONE', #304, #280, #91 ) ;
#30 = DIRECTION ( 'NONE',  ( 0.0000000000000000000, 0.0000000000000000000, -1.000000000000000000 ) ) ;
#31 = SURFACE_SIDE_STYLE ('',( #41 ) ) ;
#32 = CARTESIAN_POINT ( 'NONE',  ( 2.811002752565591000E-015, 10.49999999999999800, 21.73275999035729800 ) ) ;
#33 = CARTESIAN_POINT ( 'NONE',  ( 2.827614669974782200E-015, 11.00000000000000000, 21.73275999035729800 ) ) ;
#34 = CIRCLE ( 'NONE', #366, 5.000000000000000900 ) ;
#35 = CARTESIAN_POINT ( 'NONE',  ( 0.0000000000000000000, 10.19999999999999800, 0.0000000000000000000 ) ) ;
#36 = CIRCLE ( 'NONE', #232, 29.50000000000000000 ) ;
#37 = ORIENTED_EDGE ( 'NONE', *, *, #342, .F. ) ;
#38 = EDGE_LOOP ( 'NONE', ( #47, #94, #351, #163 ) ) ;
#39 = CARTESIAN_POINT ( 'NONE',  ( 0.0000000000000000000, 5.999999999999999100, 0.0000000000000000000 ) ) ;
#40 = AXIS2_PLACEMENT_3D ( 'NONE', #212, #22, #241 ) ;
#41 = SURFACE_STYLE_FILL_AREA ( #84 ) ;
#42 = CARTESIAN_POINT ( 'NONE',  ( 0.0000000000000000000, 11.00000000000000000, 13.25000000000000200 ) ) ;
#43 = AXIS2_PLACEMENT_3D ( 'NONE', #252, #344, #159 ) ;
#44 = ORIENTED_EDGE ( 'NONE', *, *, #219, .F. ) ;
#45 = EDGE_CURVE ( 'NONE', #111, #63, #214, .T. ) ;
#46 = FACE_BOUND ( 'NONE', #72, .T. ) ;
#47 = ORIENTED_EDGE ( 'NONE', *, *, #175, .F. ) ;
#48 = PRESENTATION_STYLE_ASSIGNMENT (( #371 ) ) ;
#49 = ADVANCED_FACE ( 'NONE', ( #203 ), #356, .F. ) ;
#50 = VERTEX_POINT ( 'NONE', #10 ) ;
#51 = DIRECTION ( 'NONE',  ( -1.224646799147352700E-016, 0.0000000000000000000, -1.000000000000000000 ) ) ;
#52 = ADVANCED_FACE ( 'NONE', ( #46, #385 ), #201, .T. ) ;
#53 = CIRCLE ( 'NONE', #294, 5.000000000000000900 ) ;
#54 = EDGE_CURVE ( 'NONE', #50, #158, #393, .T. ) ;
#55 = VERTEX_POINT ( 'NONE', #199 ) ;
#56 = CIRCLE ( 'NONE', #127, 21.73275999035729800 ) ;
#57 =( NAMED_UNIT ( * ) SI_UNIT ( $, .STERADIAN. ) SOLID_ANGLE_UNIT ( ) );
#58 = CARTESIAN_POINT ( 'NONE',  ( 2.960510009248309900E-015, 9.779999999999997600, 24.17439878428239600 ) ) ;
#59 =( NAMED_UNIT ( * ) PLANE_ANGLE_UNIT ( ) SI_UNIT ( $, .RADIAN. ) );
#60 = CARTESIAN_POINT ( 'NONE',  ( 3.612708057484691600E-015, 0.0000000000000000000, 29.50000000000000000 ) ) ;
#61 = PRODUCT ( 'àðò. KRT507', 'àðò. KRT507', '', ( #26 ) ) ;
#62 = CARTESIAN_POINT ( 'NONE',  ( 2.661495495882872600E-015, 5.999999999999999100, 21.73275999035729800 ) ) ;
#63 = VERTEX_POINT ( 'NONE', #42 ) ;
#64 = FILL_AREA_STYLE_COLOUR ( '', #173 ) ;
#65 = CARTESIAN_POINT ( 'NONE',  ( 0.0000000000000000000, 0.0000000000000000000, 0.0000000000000000000 ) ) ;
#66 = CARTESIAN_POINT ( 'NONE',  ( 1.622657008870243300E-015, 10.49999999999999800, -13.25000000000000200 ) ) ;
#67 = CIRCLE ( 'NONE', #299, 24.17439878428239600 ) ;
#68 = ORIENTED_EDGE ( 'NONE', *, *, #303, .T. ) ;
#69 = PRESENTATION_LAYER_ASSIGNMENT (  '', '', ( #103 ) ) ;
#70 = DIRECTION ( 'NONE',  ( 0.0000000000000000000, 1.000000000000000000, 0.0000000000000000000 ) ) ;
#71 = LINE ( 'NONE', #115, #388 ) ;
#72 = EDGE_LOOP ( 'NONE', ( #109, #20 ) ) ;
#73 = CARTESIAN_POINT ( 'NONE',  ( 0.0000000000000000000, 5.999999999999999100, 0.0000000000000000000 ) ) ;
#74 = ORIENTED_EDGE ( 'NONE', *, *, #8, .T. ) ;
#75 = CARTESIAN_POINT ( 'NONE',  ( 0.0000000000000000000, 10.49999999999999800, 0.0000000000000000000 ) ) ;
#76 = EDGE_CURVE ( 'NONE', #121, #111, #242, .T. ) ;
#77 = FACE_BOUND ( 'NONE', #267, .T. ) ;
#78 = ORIENTED_EDGE ( 'NONE', *, *, #8, .F. ) ;
#79 = ORIENTED_EDGE ( 'NONE', *, *, #219, .T. ) ;
#80 = DIRECTION ( 'NONE',  ( 1.000000000000000000, 0.0000000000000000000, -1.224646799147353200E-016 ) ) ;
#81 = CARTESIAN_POINT ( 'NONE',  ( 0.0000000000000000000, 10.19999999999999800, -24.44569198360740700 ) ) ;
#82 = PRESENTATION_STYLE_ASSIGNMENT (( #202 ) ) ;
#83 = ADVANCED_FACE ( 'NONE', ( #85 ), #263, .F. ) ;
#84 = FILL_AREA_STYLE ('',( #343 ) ) ;
#85 = FACE_OUTER_BOUND ( 'NONE', #174, .T. ) ;
#86 = AXIS2_PLACEMENT_3D ( 'NONE', #355, #218, #401 ) ;
#87 = ORIENTED_EDGE ( 'NONE', *, *, #266, .T. ) ;
#88 = CARTESIAN_POINT ( 'NONE',  ( 0.0000000000000000000, 0.0000000000000000000, -17.85714285714285800 ) ) ;
#89 = CARTESIAN_POINT ( 'NONE',  ( 0.0000000000000000000, 5.999999999999999100, 0.0000000000000000000 ) ) ;
#90 = DIRECTION ( 'NONE',  ( 0.0000000000000000000, -1.000000000000000000, -0.0000000000000000000 ) ) ;
#91 = DIRECTION ( 'NONE',  ( 0.0000000000000000000, 0.0000000000000000000, 1.000000000000000000 ) ) ;
#92 = CARTESIAN_POINT ( 'NONE',  ( 0.0000000000000000000, 0.0000000000000000000, 0.0000000000000000000 ) ) ;
#93 = FACE_BOUND ( 'NONE', #286, .T. ) ;
#94 = ORIENTED_EDGE ( 'NONE', *, *, #54, .F. ) ;
#95 = AXIS2_PLACEMENT_3D ( 'NONE', #341, #253, #30 ) ;
#96 = DIRECTION ( 'NONE',  ( 0.0000000000000000000, 0.0000000000000000000, 1.000000000000000000 ) ) ;
#97 = EDGE_CURVE ( 'NONE', #369, #347, #131, .T. ) ;
#98 = CIRCLE ( 'NONE', #325, 12.14285714285714200 ) ;
#99 = DIRECTION ( 'NONE',  ( 0.0000000000000000000, 0.0000000000000000000, 1.000000000000000000 ) ) ;
#100 = EDGE_LOOP ( 'NONE', ( #394, #200 ) ) ;
#101 = AXIS2_PLACEMENT_3D ( 'NONE', #73, #12, #289 ) ;
#102 = CARTESIAN_POINT ( 'NONE',  ( 0.0000000000000000000, 0.0000000000000000000, 0.0000000000000000000 ) ) ;
#103 = STYLED_ITEM ( 'NONE', ( #48 ), #168 ) ;
#104 = CIRCLE ( 'NONE', #40, 21.73275999035729800 ) ;
#105 = ORIENTED_EDGE ( 'NONE', *, *, #384, .F. ) ;
#106 = EDGE_CURVE ( 'NONE', #281, #320, #301, .T. ) ;
#107 = UNCERTAINTY_MEASURE_WITH_UNIT (LENGTH_MEASURE( 1.000000000000000100E-005 ), #118, 'distance_accuracy_value', 'NONE');
#108 = SHAPE_DEFINITION_REPRESENTATION ( #187, #168 ) ;
#109 = ORIENTED_EDGE ( 'NONE', *, *, #23, .F. ) ;
#110 = ORIENTED_EDGE ( 'NONE', *, *, #97, .T. ) ;
#111 = VERTEX_POINT ( 'NONE', #129 ) ;
#112 = AXIS2_PLACEMENT_3D ( 'NONE', #39, #383, #259 ) ;
#113 = DIRECTION ( 'NONE',  ( -1.224646799147353200E-016, 0.0000000000000000000, -1.000000000000000000 ) ) ;
#114 = ORIENTED_EDGE ( 'NONE', *, *, #257, .F. ) ;
#115 = CARTESIAN_POINT ( 'NONE',  ( 1.622657008870243300E-015, 0.0000000000000000000, -13.25000000000000200 ) ) ;
#116 = AXIS2_PLACEMENT_3D ( 'NONE', #230, #70, #228 ) ;
#117 = DIRECTION ( 'NONE',  ( 0.0000000000000000000, 0.0000000000000000000, 1.000000000000000000 ) ) ;
#118 =( LENGTH_UNIT ( ) NAMED_UNIT ( * ) SI_UNIT ( .MILLI., .METRE. ) );
#119 = APPLICATION_CONTEXT ( 'automotive_design' ) ;
#120 = CYLINDRICAL_SURFACE ( 'NONE', #328, 13.25000000000000200 ) ;
#121 = VERTEX_POINT ( 'NONE', #66 ) ;
#122 = ORIENTED_EDGE ( 'NONE', *, *, #76, .T. ) ;
#123 = CARTESIAN_POINT ( 'NONE',  ( 3.673940397442059200E-015, 0.0000000000000000000, 30.00000000000000000 ) ) ;
#124 = CARTESIAN_POINT ( 'NONE',  ( 0.0000000000000000000, 11.00000000000000000, -21.73275999035729800 ) ) ;
#125 = DIRECTION ( 'NONE',  ( 0.0000000000000000000, 0.0000000000000000000, -1.000000000000000000 ) ) ;
#126 = SURFACE_SIDE_STYLE ('',( #9 ) ) ;
#127 = AXIS2_PLACEMENT_3D ( 'NONE', #183, #397, #217 ) ;
#128 = EDGE_LOOP ( 'NONE', ( #105, #11, #68, #206 ) ) ;
#129 = CARTESIAN_POINT ( 'NONE',  ( 0.0000000000000000000, 10.49999999999999800, 13.25000000000000200 ) ) ;
#130 = EDGE_CURVE ( 'NONE', #55, #50, #15, .T. ) ;
#131 = CIRCLE ( 'NONE', #154, 21.73275999035729800 ) ;
#132 = ORIENTED_EDGE ( 'NONE', *, *, #4, .T. ) ;
#133 = STYLED_ITEM ( 'NONE', ( #82 ), #181 ) ;
#134 = COLOUR_RGB ( '',0.7921568627450980000, 0.8196078431372548800, 0.9333333333333333500 ) ;
#135 = CARTESIAN_POINT ( 'NONE',  ( 0.0000000000000000000, 10.49999999999999800, 0.0000000000000000000 ) ) ;
#136 = AXIS2_PLACEMENT_3D ( 'NONE', #102, #165, #7 ) ;
#137 = ORIENTED_EDGE ( 'NONE', *, *, #130, .T. ) ;
#138 = AXIS2_PLACEMENT_3D ( 'NONE', #155, #220, #125 ) ;
#139 = CLOSED_SHELL ( 'NONE', ( #141, #49, #211, #142, #176, #52, #25, #364, #236, #24, #83, #18, #360 ) ) ;
#140 = DIRECTION ( 'NONE',  ( 0.0000000000000000000, 0.0000000000000000000, 1.000000000000000000 ) ) ;
#141 = ADVANCED_FACE ( 'NONE', ( #248 ), #120, .F. ) ;
#142 = ADVANCED_FACE ( 'NONE', ( #233 ), #292, .T. ) ;
#143 = FACE_OUTER_BOUND ( 'NONE', #261, .T. ) ;
#144 = ORIENTED_EDGE ( 'NONE', *, *, #4, .F. ) ;
#145 = DIRECTION ( 'NONE',  ( 0.0000000000000000000, 0.0000000000000000000, -1.000000000000000000 ) ) ;
#146 = PRODUCT_DEFINITION ( 'UNKNOWN', '', #387, #359 ) ;
#147 = CIRCLE ( 'NONE', #225, 30.00000000000000000 ) ;
#148 = DIRECTION ( 'NONE',  ( -1.000000000000000000, 0.0000000000000000000, 0.0000000000000000000 ) ) ;
#149 = EDGE_CURVE ( 'NONE', #55, #157, #260, .T. ) ;
#150 = CIRCLE ( 'NONE', #258, 11.64285714285714200 ) ;
#151 = DIRECTION ( 'NONE',  ( -0.0000000000000000000, -1.000000000000000000, -0.0000000000000000000 ) ) ;
#152 = ORIENTED_EDGE ( 'NONE', *, *, #303, .F. ) ;
#153 = DIRECTION ( 'NONE',  ( 0.0000000000000000000, 0.0000000000000000000, -1.000000000000000000 ) ) ;
#154 = AXIS2_PLACEMENT_3D ( 'NONE', #14, #27, #275 ) ;
#155 = CARTESIAN_POINT ( 'NONE',  ( 0.0000000000000000000, 5.999999999999999100, 0.0000000000000000000 ) ) ;
#156 = FACE_OUTER_BOUND ( 'NONE', #357, .T. ) ;
#157 = VERTEX_POINT ( 'NONE', #32 ) ;
#158 = VERTEX_POINT ( 'NONE', #58 ) ;
#159 = DIRECTION ( 'NONE',  ( 0.0000000000000000000, 0.0000000000000000000, -1.000000000000000000 ) ) ;
#160 = CARTESIAN_POINT ( 'NONE',  ( 0.0000000000000000000, 0.0000000000000000000, 0.0000000000000000000 ) ) ;
#161 = DIRECTION ( 'NONE',  ( -0.0000000000000000000, 1.000000000000000000, -0.0000000000000000000 ) ) ;
#162 = EDGE_LOOP ( 'NONE', ( #152, #302, #231, #6 ) ) ;
#163 = ORIENTED_EDGE ( 'NONE', *, *, #322, .T. ) ;
#164 = ORIENTED_EDGE ( 'NONE', *, *, #45, .F. ) ;
#165 = DIRECTION ( 'NONE',  ( -0.0000000000000000000, -1.000000000000000000, -0.0000000000000000000 ) ) ;
#166 = CARTESIAN_POINT ( 'NONE',  ( 0.0000000000000000000, 9.779999999999997600, 0.0000000000000000000 ) ) ;
#167 = AXIS2_PLACEMENT_3D ( 'NONE', #65, #345, #190 ) ;
#168 = ADVANCED_BREP_SHAPE_REPRESENTATION ( 'ð¨ª. KRT507', ( #181, #324 ), #264 ) ;
#169 = TOROIDAL_SURFACE ( 'NONE', #216, 21.73275999035729800, 4.999999999999999100 ) ;
#170 = AXIS2_PLACEMENT_3D ( 'NONE', #75, #265, #140 ) ;
#171 = ORIENTED_EDGE ( 'NONE', *, *, #76, .F. ) ;
#172 = AXIS2_PLACEMENT_3D ( 'NONE', #92, #195, #5 ) ;
#173 = COLOUR_RGB ( '',0.7921568627450980000, 0.8196078431372548800, 0.9333333333333333500 ) ;
#174 = EDGE_LOOP ( 'NONE', ( #338, #382, #137, #331 ) ) ;
#175 = EDGE_CURVE ( 'NONE', #158, #208, #150, .T. ) ;
#176 = ADVANCED_FACE ( 'NONE', ( #19 ), #169, .T. ) ;
#177 = DIRECTION ( 'NONE',  ( -1.000000000000000000, 0.0000000000000000000, 0.0000000000000000000 ) ) ;
#178 = CIRCLE ( 'NONE', #29, 13.25000000000000200 ) ;
#179 = ORIENTED_EDGE ( 'NONE', *, *, #287, .F. ) ;
#180 = DIRECTION ( 'NONE',  ( 0.0000000000000000000, 0.0000000000000000000, -1.000000000000000000 ) ) ;
#181 = MANIFOLD_SOLID_BREP ( 'Âûðåç-Âûòÿíóòü1', #139 ) ;
#182 = AXIS2_PLACEMENT_3D ( 'NONE', #274, #210, #240 ) ;
#183 = CARTESIAN_POINT ( 'NONE',  ( 0.0000000000000000000, 10.49999999999999800, 0.0000000000000000000 ) ) ;
#184 =( NAMED_UNIT ( * ) PLANE_ANGLE_UNIT ( ) SI_UNIT ( $, .RADIAN. ) );
#185 = VECTOR ( 'NONE', #380, 1000.000000000000000 ) ;
#186 = ORIENTED_EDGE ( 'NONE', *, *, #381, .F. ) ;
#187 = PRODUCT_DEFINITION_SHAPE ( 'NONE', 'NONE',  #146 ) ;
#188 = DIRECTION ( 'NONE',  ( 0.0000000000000000000, 0.0000000000000000000, 1.000000000000000000 ) ) ;
#189 = DIRECTION ( 'NONE',  ( -1.224646799147352700E-016, 0.0000000000000000000, -1.000000000000000000 ) ) ;
#190 = DIRECTION ( 'NONE',  ( 0.0000000000000000000, 0.0000000000000000000, 1.000000000000000000 ) ) ;
#191 = CARTESIAN_POINT ( 'NONE',  ( 0.0000000000000000000, 0.0000000000000000000, -30.00000000000000000 ) ) ;
#192 =( GEOMETRIC_REPRESENTATION_CONTEXT ( 3 ) GLOBAL_UNCERTAINTY_ASSIGNED_CONTEXT ( ( #270 ) ) GLOBAL_UNIT_ASSIGNED_CONTEXT ( ( #340, #59, #57 ) ) REPRESENTATION_CONTEXT ( 'NONE', 'WORKASPACE' ) );
#193 = DIRECTION ( 'NONE',  ( -0.0000000000000000000, -1.000000000000000000, -0.0000000000000000000 ) ) ;
#194 = CIRCLE ( 'NONE', #43, 24.44569198360740700 ) ;
#195 = DIRECTION ( 'NONE',  ( -0.0000000000000000000, -1.000000000000000000, -0.0000000000000000000 ) ) ;
#196 = AXIS2_PLACEMENT_3D ( 'NONE', #62, #307, #189 ) ;
#197 = AXIS2_PLACEMENT_3D ( 'NONE', #160, #279, #315 ) ;
#198 = FACE_OUTER_BOUND ( 'NONE', #290, .T. ) ;
#199 = CARTESIAN_POINT ( 'NONE',  ( 0.0000000000000000000, 10.49999999999999800, -21.73275999035729800 ) ) ;
#200 = ORIENTED_EDGE ( 'NONE', *, *, #97, .F. ) ;
#201 = PLANE ( 'NONE',  #116 ) ;
#202 = SURFACE_STYLE_USAGE ( .BOTH. , #126 ) ;
#203 = FACE_OUTER_BOUND ( 'NONE', #162, .T. ) ;
#204 =( GEOMETRIC_REPRESENTATION_CONTEXT ( 3 ) GLOBAL_UNCERTAINTY_ASSIGNED_CONTEXT ( ( #13 ) ) GLOBAL_UNIT_ASSIGNED_CONTEXT ( ( #262, #184, #376 ) ) REPRESENTATION_CONTEXT ( 'NONE', 'WORKASPACE' ) );
#205 = TOROIDAL_SURFACE ( 'NONE', #350, 17.85714285714285800, 11.64285714285714200 ) ;
#206 = ORIENTED_EDGE ( 'NONE', *, *, #130, .F. ) ;
#207 = ORIENTED_EDGE ( 'NONE', *, *, #45, .T. ) ;
#208 = VERTEX_POINT ( 'NONE', #60 ) ;
#209 = AXIS2_PLACEMENT_3D ( 'NONE', #166, #227, #288 ) ;
#210 = DIRECTION ( 'NONE',  ( 0.0000000000000000000, 1.000000000000000000, 0.0000000000000000000 ) ) ;
#211 = ADVANCED_FACE ( 'NONE', ( #254 ), #319, .F. ) ;
#212 = CARTESIAN_POINT ( 'NONE',  ( 0.0000000000000000000, 11.00000000000000000, 0.0000000000000000000 ) ) ;
#213 =( NAMED_UNIT ( * ) SI_UNIT ( $, .STERADIAN. ) SOLID_ANGLE_UNIT ( ) );
#214 = LINE ( 'NONE', #353, #185 ) ;
#215 = ORIENTED_EDGE ( 'NONE', *, *, #1, .F. ) ;
#216 = AXIS2_PLACEMENT_3D ( 'NONE', #89, #314, #278 ) ;
#217 = DIRECTION ( 'NONE',  ( 0.0000000000000000000, 0.0000000000000000000, -1.000000000000000000 ) ) ;
#218 = DIRECTION ( 'NONE',  ( 0.0000000000000000000, 1.000000000000000000, 0.0000000000000000000 ) ) ;
#219 = EDGE_CURVE ( 'NONE', #320, #281, #194, .T. ) ;
#220 = DIRECTION ( 'NONE',  ( -0.0000000000000000000, -1.000000000000000000, -0.0000000000000000000 ) ) ;
#221 = CARTESIAN_POINT ( 'NONE',  ( 2.186869284191702100E-015, 0.0000000000000000000, 17.85714285714285800 ) ) ;
#222 = VERTEX_POINT ( 'NONE', #191 ) ;
#223 = DIRECTION ( 'NONE',  ( 0.0000000000000000000, 0.0000000000000000000, -1.000000000000000000 ) ) ;
#224 = DIRECTION ( 'NONE',  ( -0.0000000000000000000, -1.000000000000000000, -0.0000000000000000000 ) ) ;
#225 = AXIS2_PLACEMENT_3D ( 'NONE', #335, #246, #153 ) ;
#226 = CIRCLE ( 'NONE', #196, 4.500000000000000900 ) ;
#227 = DIRECTION ( 'NONE',  ( -0.0000000000000000000, -1.000000000000000000, -0.0000000000000000000 ) ) ;
#228 = DIRECTION ( 'NONE',  ( 0.0000000000000000000, -0.0000000000000000000, 1.000000000000000000 ) ) ;
#229 = TOROIDAL_SURFACE ( 'NONE', #375, 17.85714285714285800, 12.14285714285714200 ) ;
#230 = CARTESIAN_POINT ( 'NONE',  ( 0.0000000000000000000, 11.00000000000000000, 0.0000000000000000000 ) ) ;
#231 = ORIENTED_EDGE ( 'NONE', *, *, #363, .T. ) ;
#232 = AXIS2_PLACEMENT_3D ( 'NONE', #390, #151, #365 ) ;
#233 = FACE_OUTER_BOUND ( 'NONE', #296, .T. ) ;
#234 = ORIENTED_EDGE ( 'NONE', *, *, #321, .F. ) ;
#235 = AXIS2_PLACEMENT_3D ( 'NONE', #35, #224, #255 ) ;
#236 = ADVANCED_FACE ( 'NONE', ( #77, #198 ), #372, .T. ) ;
#237 = CIRCLE ( 'NONE', #245, 12.14285714285714200 ) ;
#238 = ORIENTED_EDGE ( 'NONE', *, *, #257, .T. ) ;
#239 = CARTESIAN_POINT ( 'NONE',  ( 2.186869284191702100E-015, 0.0000000000000000000, 17.85714285714285800 ) ) ;
#240 = DIRECTION ( 'NONE',  ( 0.0000000000000000000, 0.0000000000000000000, 1.000000000000000000 ) ) ;
#241 = DIRECTION ( 'NONE',  ( 0.0000000000000000000, 0.0000000000000000000, -1.000000000000000000 ) ) ;
#242 = CIRCLE ( 'NONE', #284, 13.25000000000000200 ) ;
#243 = CARTESIAN_POINT ( 'NONE',  ( 0.0000000000000000000, 9.779999999999997600, 0.0000000000000000000 ) ) ;
#244 = ORIENTED_EDGE ( 'NONE', *, *, #23, .T. ) ;
#245 = AXIS2_PLACEMENT_3D ( 'NONE', #333, #148, #117 ) ;
#246 = DIRECTION ( 'NONE',  ( -0.0000000000000000000, -1.000000000000000000, -0.0000000000000000000 ) ) ;
#247 = APPLICATION_PROTOCOL_DEFINITION ( 'draft international standard', 'automotive_design', 1998, #119 ) ;
#248 = FACE_OUTER_BOUND ( 'NONE', #386, .T. ) ;
#249 = ORIENTED_EDGE ( 'NONE', *, *, #287, .T. ) ;
#250 = FILL_AREA_STYLE ('',( #64 ) ) ;
#251 = APPLICATION_PROTOCOL_DEFINITION ( 'draft international standard', 'automotive_design', 1998, #332 ) ;
#252 = CARTESIAN_POINT ( 'NONE',  ( 0.0000000000000000000, 10.19999999999999800, 0.0000000000000000000 ) ) ;
#253 = DIRECTION ( 'NONE',  ( -0.0000000000000000000, -1.000000000000000000, -0.0000000000000000000 ) ) ;
#254 = FACE_OUTER_BOUND ( 'NONE', #128, .T. ) ;
#255 = DIRECTION ( 'NONE',  ( 0.0000000000000000000, 0.0000000000000000000, -1.000000000000000000 ) ) ;
#256 = EDGE_LOOP ( 'NONE', ( #377, #327 ) ) ;
#257 = EDGE_CURVE ( 'NONE', #369, #281, #53, .T. ) ;
#258 = AXIS2_PLACEMENT_3D ( 'NONE', #221, #310, #402 ) ;
#259 = DIRECTION ( 'NONE',  ( 0.0000000000000000000, 0.0000000000000000000, -1.000000000000000000 ) ) ;
#260 = CIRCLE ( 'NONE', #95, 21.73275999035729800 ) ;
#261 = EDGE_LOOP ( 'NONE', ( #78, #373, #249, #215 ) ) ;
#262 =( LENGTH_UNIT ( ) NAMED_UNIT ( * ) SI_UNIT ( .MILLI., .METRE. ) );
#263 = TOROIDAL_SURFACE ( 'NONE', #101, 21.73275999035729800, 4.499999999999999100 ) ;
#264 =( GEOMETRIC_REPRESENTATION_CONTEXT ( 3 ) GLOBAL_UNCERTAINTY_ASSIGNED_CONTEXT ( ( #107 ) ) GLOBAL_UNIT_ASSIGNED_CONTEXT ( ( #118, #300, #213 ) ) REPRESENTATION_CONTEXT ( 'NONE', 'WORKASPACE' ) );
#265 = DIRECTION ( 'NONE',  ( 0.0000000000000000000, 1.000000000000000000, 0.0000000000000000000 ) ) ;
#266 = EDGE_CURVE ( 'NONE', #339, #63, #398, .T. ) ;
#267 = EDGE_LOOP ( 'NONE', ( #361, #28 ) ) ;
#268 = ORIENTED_EDGE ( 'NONE', *, *, #106, .F. ) ;
#269 = CIRCLE ( 'NONE', #318, 11.64285714285714200 ) ;
#270 = UNCERTAINTY_MEASURE_WITH_UNIT (LENGTH_MEASURE( 1.000000000000000100E-005 ), #340, 'distance_accuracy_value', 'NONE');
#271 = DIRECTION ( 'NONE',  ( -0.0000000000000000000, 1.000000000000000000, -0.0000000000000000000 ) ) ;
#272 = MECHANICAL_DESIGN_GEOMETRIC_PRESENTATION_REPRESENTATION (  '', ( #133 ), #204 ) ;
#273 = CARTESIAN_POINT ( 'NONE',  ( 0.0000000000000000000, 5.999999999999999100, -21.73275999035729800 ) ) ;
#274 = CARTESIAN_POINT ( 'NONE',  ( 0.0000000000000000000, 11.00000000000000000, 0.0000000000000000000 ) ) ;
#275 = DIRECTION ( 'NONE',  ( 0.0000000000000000000, 0.0000000000000000000, -1.000000000000000000 ) ) ;
#276 = PRESENTATION_LAYER_ASSIGNMENT (  '', '', ( #133 ) ) ;
#277 = DIRECTION ( 'NONE',  ( -0.0000000000000000000, -1.000000000000000000, -0.0000000000000000000 ) ) ;
#278 = DIRECTION ( 'NONE',  ( 0.0000000000000000000, 0.0000000000000000000, -1.000000000000000000 ) ) ;
#279 = DIRECTION ( 'NONE',  ( -0.0000000000000000000, -1.000000000000000000, -0.0000000000000000000 ) ) ;
#280 = DIRECTION ( 'NONE',  ( 0.0000000000000000000, 1.000000000000000000, 0.0000000000000000000 ) ) ;
#281 = VERTEX_POINT ( 'NONE', #330 ) ;
#282 = CARTESIAN_POINT ( 'NONE',  ( 0.0000000000000000000, 5.999999999999999100, -21.73275999035729800 ) ) ;
#283 = DIRECTION ( 'NONE',  ( -1.000000000000000000, 0.0000000000000000000, 0.0000000000000000000 ) ) ;
#284 = AXIS2_PLACEMENT_3D ( 'NONE', #135, #379, #99 ) ;
#285 = FACE_OUTER_BOUND ( 'NONE', #38, .T. ) ;
#286 = EDGE_LOOP ( 'NONE', ( #132, #122 ) ) ;
#287 = EDGE_CURVE ( 'NONE', #320, #222, #237, .T. ) ;
#288 = DIRECTION ( 'NONE',  ( 0.0000000000000000000, 0.0000000000000000000, -1.000000000000000000 ) ) ;
#289 = DIRECTION ( 'NONE',  ( 0.0000000000000000000, 0.0000000000000000000, -1.000000000000000000 ) ) ;
#290 = EDGE_LOOP ( 'NONE', ( #323, #293 ) ) ;
#291 = AXIS2_PLACEMENT_3D ( 'NONE', #370, #309, #145 ) ;
#292 = TOROIDAL_SURFACE ( 'NONE', #172, 17.85714285714285800, 12.14285714285714200 ) ;
#293 = ORIENTED_EDGE ( 'NONE', *, *, #1, .T. ) ;
#294 = AXIS2_PLACEMENT_3D ( 'NONE', #21, #80, #51 ) ;
#295 = DIRECTION ( 'NONE',  ( 1.000000000000000000, 0.0000000000000000000, -1.224646799147353200E-016 ) ) ;
#296 = EDGE_LOOP ( 'NONE', ( #79, #74, #186, #179 ) ) ;
#297 = DIRECTION ( 'NONE',  ( -0.0000000000000000000, -1.000000000000000000, -0.0000000000000000000 ) ) ;
#298 = DIRECTION ( 'NONE',  ( 0.0000000000000000000, 0.0000000000000000000, 1.000000000000000000 ) ) ;
#299 = AXIS2_PLACEMENT_3D ( 'NONE', #243, #297, #180 ) ;
#300 =( NAMED_UNIT ( * ) PLANE_ANGLE_UNIT ( ) SI_UNIT ( $, .RADIAN. ) );
#301 = CIRCLE ( 'NONE', #235, 24.44569198360740700 ) ;
#302 = ORIENTED_EDGE ( 'NONE', *, *, #175, .T. ) ;
#303 = EDGE_CURVE ( 'NONE', #158, #50, #67, .T. ) ;
#304 = CARTESIAN_POINT ( 'NONE',  ( 0.0000000000000000000, 11.00000000000000000, 0.0000000000000000000 ) ) ;
#305 = DIRECTION ( 'NONE',  ( -1.000000000000000000, 0.0000000000000000000, 0.0000000000000000000 ) ) ;
#306 = DIRECTION ( 'NONE',  ( 0.0000000000000000000, 0.0000000000000000000, -1.000000000000000000 ) ) ;
#307 = DIRECTION ( 'NONE',  ( 1.000000000000000000, 0.0000000000000000000, -1.224646799147353200E-016 ) ) ;
#308 = CARTESIAN_POINT ( 'NONE',  ( 0.0000000000000000000, 0.0000000000000000000, 0.0000000000000000000 ) ) ;
#309 = DIRECTION ( 'NONE',  ( -0.0000000000000000000, -1.000000000000000000, -0.0000000000000000000 ) ) ;
#310 = DIRECTION ( 'NONE',  ( 1.000000000000000000, 0.0000000000000000000, -1.224646799147353200E-016 ) ) ;
#311 = CIRCLE ( 'NONE', #197, 29.50000000000000000 ) ;
#312 = VERTEX_POINT ( 'NONE', #362 ) ;
#313 = EDGE_LOOP ( 'NONE', ( #358, #238, #44, #234 ) ) ;
#314 = DIRECTION ( 'NONE',  ( -0.0000000000000000000, -1.000000000000000000, -0.0000000000000000000 ) ) ;
#315 = DIRECTION ( 'NONE',  ( 0.0000000000000000000, 0.0000000000000000000, -1.000000000000000000 ) ) ;
#316 = DIRECTION ( 'NONE',  ( 0.0000000000000000000, 0.0000000000000000000, 1.000000000000000000 ) ) ;
#317 = ORIENTED_EDGE ( 'NONE', *, *, #321, .T. ) ;
#318 = AXIS2_PLACEMENT_3D ( 'NONE', #88, #305, #367 ) ;
#319 = TOROIDAL_SURFACE ( 'NONE', #138, 21.73275999035729800, 4.499999999999999100 ) ;
#320 = VERTEX_POINT ( 'NONE', #81 ) ;
#321 = EDGE_CURVE ( 'NONE', #347, #320, #34, .T. ) ;
#322 = EDGE_CURVE ( 'NONE', #312, #208, #36, .T. ) ;
#323 = ORIENTED_EDGE ( 'NONE', *, *, #381, .T. ) ;
#324 = AXIS2_PLACEMENT_3D ( 'NONE', #3, #188, #400 ) ;
#325 = AXIS2_PLACEMENT_3D ( 'NONE', #239, #295, #113 ) ;
#326 = CIRCLE ( 'NONE', #170, 13.25000000000000200 ) ;
#327 = ORIENTED_EDGE ( 'NONE', *, *, #384, .T. ) ;
#328 = AXIS2_PLACEMENT_3D ( 'NONE', #346, #161, #96 ) ;
#329 = FACE_OUTER_BOUND ( 'NONE', #256, .T. ) ;
#330 = CARTESIAN_POINT ( 'NONE',  ( 2.993733844066692300E-015, 10.19999999999999800, 24.44569198360740700 ) ) ;
#331 = ORIENTED_EDGE ( 'NONE', *, *, #54, .T. ) ;
#332 = APPLICATION_CONTEXT ( 'automotive_design' ) ;
#333 = CARTESIAN_POINT ( 'NONE',  ( 0.0000000000000000000, 0.0000000000000000000, -17.85714285714285800 ) ) ;
#334 = EDGE_CURVE ( 'NONE', #347, #369, #104, .T. ) ;
#335 = CARTESIAN_POINT ( 'NONE',  ( 0.0000000000000000000, 0.0000000000000000000, 0.0000000000000000000 ) ) ;
#336 = MECHANICAL_DESIGN_GEOMETRIC_PRESENTATION_REPRESENTATION (  '', ( #103 ), #192 ) ;
#337 = TOROIDAL_SURFACE ( 'NONE', #112, 21.73275999035729800, 4.999999999999999100 ) ;
#338 = ORIENTED_EDGE ( 'NONE', *, *, #16, .F. ) ;
#339 = VERTEX_POINT ( 'NONE', #392 ) ;
#340 =( LENGTH_UNIT ( ) NAMED_UNIT ( * ) SI_UNIT ( .MILLI., .METRE. ) );
#341 = CARTESIAN_POINT ( 'NONE',  ( 0.0000000000000000000, 10.49999999999999800, 0.0000000000000000000 ) ) ;
#342 = EDGE_CURVE ( 'NONE', #121, #339, #71, .T. ) ;
#343 = FILL_AREA_STYLE_COLOUR ( '', #134 ) ;
#344 = DIRECTION ( 'NONE',  ( -0.0000000000000000000, -1.000000000000000000, -0.0000000000000000000 ) ) ;
#345 = DIRECTION ( 'NONE',  ( -0.0000000000000000000, 1.000000000000000000, -0.0000000000000000000 ) ) ;
#346 = CARTESIAN_POINT ( 'NONE',  ( 0.0000000000000000000, 0.0000000000000000000, 0.0000000000000000000 ) ) ;
#347 = VERTEX_POINT ( 'NONE', #124 ) ;
#348 = PRODUCT_RELATED_PRODUCT_CATEGORY ( 'part', '', ( #61 ) ) ;
#349 = CYLINDRICAL_SURFACE ( 'NONE', #167, 13.25000000000000200 ) ;
#350 = AXIS2_PLACEMENT_3D ( 'NONE', #308, #277, #396 ) ;
#351 = ORIENTED_EDGE ( 'NONE', *, *, #395, .T. ) ;
#352 = VERTEX_POINT ( 'NONE', #123 ) ;
#353 = CARTESIAN_POINT ( 'NONE',  ( 0.0000000000000000000, 0.0000000000000000000, 13.25000000000000200 ) ) ;
#354 = FACE_OUTER_BOUND ( 'NONE', #399, .T. ) ;
#355 = CARTESIAN_POINT ( 'NONE',  ( 0.0000000000000000000, 10.49999999999999800, 0.0000000000000000000 ) ) ;
#356 = TOROIDAL_SURFACE ( 'NONE', #136, 17.85714285714285800, 11.64285714285714200 ) ;
#357 = EDGE_LOOP ( 'NONE', ( #37, #144, #207, #244 ) ) ;
#358 = ORIENTED_EDGE ( 'NONE', *, *, #334, .T. ) ;
#359 = PRODUCT_DEFINITION_CONTEXT ( 'detailed design', #119, 'design' ) ;
#360 = ADVANCED_FACE ( 'NONE', ( #156 ), #349, .F. ) ;
#361 = ORIENTED_EDGE ( 'NONE', *, *, #322, .F. ) ;
#362 = CARTESIAN_POINT ( 'NONE',  ( 0.0000000000000000000, 0.0000000000000000000, -29.50000000000000000 ) ) ;
#363 = EDGE_CURVE ( 'NONE', #208, #312, #311, .T. ) ;
#364 = ADVANCED_FACE ( 'NONE', ( #143 ), #229, .T. ) ;
#365 = DIRECTION ( 'NONE',  ( 0.0000000000000000000, 0.0000000000000000000, -1.000000000000000000 ) ) ;
#366 = AXIS2_PLACEMENT_3D ( 'NONE', #273, #177, #298 ) ;
#367 = DIRECTION ( 'NONE',  ( 0.0000000000000000000, 0.0000000000000000000, 1.000000000000000000 ) ) ;
#368 = CIRCLE ( 'NONE', #291, 30.00000000000000000 ) ;
#369 = VERTEX_POINT ( 'NONE', #33 ) ;
#370 = CARTESIAN_POINT ( 'NONE',  ( 0.0000000000000000000, 0.0000000000000000000, 0.0000000000000000000 ) ) ;
#371 = SURFACE_STYLE_USAGE ( .BOTH. , #31 ) ;
#372 = PLANE ( 'NONE',  #378 ) ;
#373 = ORIENTED_EDGE ( 'NONE', *, *, #106, .T. ) ;
#374 = CARTESIAN_POINT ( 'NONE',  ( 0.0000000000000000000, 0.0000000000000000000, 0.0000000000000000000 ) ) ;
#375 = AXIS2_PLACEMENT_3D ( 'NONE', #374, #193, #223 ) ;
#376 =( NAMED_UNIT ( * ) SI_UNIT ( $, .STERADIAN. ) SOLID_ANGLE_UNIT ( ) );
#377 = ORIENTED_EDGE ( 'NONE', *, *, #149, .T. ) ;
#378 = AXIS2_PLACEMENT_3D ( 'NONE', #2, #90, #306 ) ;
#379 = DIRECTION ( 'NONE',  ( 0.0000000000000000000, 1.000000000000000000, 0.0000000000000000000 ) ) ;
#380 = DIRECTION ( 'NONE',  ( -0.0000000000000000000, 1.000000000000000000, -0.0000000000000000000 ) ) ;
#381 = EDGE_CURVE ( 'NONE', #222, #352, #147, .T. ) ;
#382 = ORIENTED_EDGE ( 'NONE', *, *, #149, .F. ) ;
#383 = DIRECTION ( 'NONE',  ( -0.0000000000000000000, -1.000000000000000000, -0.0000000000000000000 ) ) ;
#384 = EDGE_CURVE ( 'NONE', #157, #55, #56, .T. ) ;
#385 = FACE_OUTER_BOUND ( 'NONE', #100, .T. ) ;
#386 = EDGE_LOOP ( 'NONE', ( #171, #389, #87, #164 ) ) ;
#387 = PRODUCT_DEFINITION_FORMATION_WITH_SPECIFIED_SOURCE ( 'ANY', '', #61, .NOT_KNOWN. ) ;
#388 = VECTOR ( 'NONE', #271, 1000.000000000000000 ) ;
#389 = ORIENTED_EDGE ( 'NONE', *, *, #342, .T. ) ;
#390 = CARTESIAN_POINT ( 'NONE',  ( 0.0000000000000000000, 0.0000000000000000000, 0.0000000000000000000 ) ) ;
#391 = AXIS2_PLACEMENT_3D ( 'NONE', #282, #283, #316 ) ;
#392 = CARTESIAN_POINT ( 'NONE',  ( 1.622657008870243300E-015, 11.00000000000000000, -13.25000000000000200 ) ) ;
#393 = CIRCLE ( 'NONE', #209, 24.17439878428239600 ) ;
#394 = ORIENTED_EDGE ( 'NONE', *, *, #334, .F. ) ;
#395 = EDGE_CURVE ( 'NONE', #50, #312, #269, .T. ) ;
#396 = DIRECTION ( 'NONE',  ( 0.0000000000000000000, 0.0000000000000000000, -1.000000000000000000 ) ) ;
#397 = DIRECTION ( 'NONE',  ( -0.0000000000000000000, -1.000000000000000000, -0.0000000000000000000 ) ) ;
#398 = CIRCLE ( 'NONE', #182, 13.25000000000000200 ) ;
#399 = EDGE_LOOP ( 'NONE', ( #114, #110, #317, #268 ) ) ;
#400 = DIRECTION ( 'NONE',  ( 1.000000000000000000, 0.0000000000000000000, 0.0000000000000000000 ) ) ;
#401 = DIRECTION ( 'NONE',  ( 0.0000000000000000000, -0.0000000000000000000, 1.000000000000000000 ) ) ;
#402 = DIRECTION ( 'NONE',  ( -1.224646799147353200E-016, 0.0000000000000000000, -1.000000000000000000 ) ) ;
ENDSEC;
END-ISO-10303-21;
