ISO-10303-21;
HEADER;
FILE_DESCRIPTION (( 'STEP AP214' ),
    '1' );
FILE_NAME ('àðò. KRT508.STEP',
    '2014-06-04T08:31:30',
    ( '' ),
    ( '' ),
    'SwSTEP 2.0',
    'SolidWorks 2014',
    '' );
FILE_SCHEMA (( 'AUTOMOTIVE_DESIGN' ));
ENDSEC;

DATA;
#1 = FACE_OUTER_BOUND ( 'NONE', #293, .T. ) ;
#2 = AXIS2_PLACEMENT_3D ( 'NONE', #174, #271, #76 ) ;
#3 = AXIS2_PLACEMENT_3D ( 'NONE', #253, #55, #277 ) ;
#4 = CARTESIAN_POINT ( 'NONE',  ( 14.91829534216825500, 1.363345276491655400, 1.826964263952122200E-015 ) ) ;
#5 = CLOSED_SHELL ( 'NONE', ( #40, #110, #345, #246, #326, #230, #353, #99, #205, #262, #21, #97, #54 ) ) ;
#6 = PRODUCT ( 'àðò. KRT508', 'àðò. KRT508', '', ( #240 ) ) ;
#7 = EDGE_CURVE ( 'NONE', #112, #26, #85, .T. ) ;
#8 = DIRECTION ( 'NONE',  ( -4.453548024734360700E-018, 1.000000000000000000, 0.0000000000000000000 ) ) ;
#9 = ORIENTED_EDGE ( 'NONE', *, *, #7, .T. ) ;
#10 = ORIENTED_EDGE ( 'NONE', *, *, #198, .T. ) ;
#11 = CARTESIAN_POINT ( 'NONE',  ( 13.07065631482459300, 4.999999999999999100, 0.0000000000000000000 ) ) ;
#12 = DIRECTION ( 'NONE',  ( -1.000000000000000000, -4.453548024734360700E-018, 0.0000000000000000000 ) ) ;
#13 = DIRECTION ( 'NONE',  ( -1.000000000000000000, 0.0000000000000000000, 0.0000000000000000000 ) ) ;
#14 = SURFACE_STYLE_USAGE ( .BOTH. , #300 ) ;
#15 = ORIENTED_EDGE ( 'NONE', *, *, #219, .F. ) ;
#16 = DIRECTION ( 'NONE',  ( -4.453548024734360700E-018, 1.000000000000000000, 0.0000000000000000000 ) ) ;
#17 =( NAMED_UNIT ( * ) SI_UNIT ( $, .STERADIAN. ) SOLID_ANGLE_UNIT ( ) );
#18 = AXIS2_PLACEMENT_3D ( 'NONE', #302, #268, #324 ) ;
#19 = VECTOR ( 'NONE', #264, 999.9999999999998900 ) ;
#20 =( NAMED_UNIT ( * ) PLANE_ANGLE_UNIT ( ) SI_UNIT ( $, .RADIAN. ) );
#21 = ADVANCED_FACE ( 'NONE', ( #279 ), #358, .F. ) ;
#22 = ORIENTED_EDGE ( 'NONE', *, *, #383, .F. ) ;
#23 = DIRECTION ( 'NONE',  ( -4.453548024734360700E-018, 1.000000000000000000, 0.0000000000000000000 ) ) ;
#24 = DIRECTION ( 'NONE',  ( 0.0000000000000000000, -0.0000000000000000000, -1.000000000000000000 ) ) ;
#25 = DIRECTION ( 'NONE',  ( -1.000000000000000000, 0.0000000000000000000, 0.0000000000000000000 ) ) ;
#26 = VERTEX_POINT ( 'NONE', #391 ) ;
#27 = EDGE_LOOP ( 'NONE', ( #39, #397, #46, #269 ) ) ;
#28 = UNCERTAINTY_MEASURE_WITH_UNIT (LENGTH_MEASURE( 1.000000000000000100E-005 ), #274, 'distance_accuracy_value', 'NONE');
#29 = CARTESIAN_POINT ( 'NONE',  ( 13.50000000000000000, 5.000000000000000000, 0.0000000000000000000 ) ) ;
#30 = ORIENTED_EDGE ( 'NONE', *, *, #32, .T. ) ;
#31 = CARTESIAN_POINT ( 'NONE',  ( 2.672128814840617800E-018, 0.3999999999999999700, 0.0000000000000000000 ) ) ;
#32 = EDGE_CURVE ( 'NONE', #249, #104, #386, .T. ) ;
#33 = VERTEX_POINT ( 'NONE', #154 ) ;
#34 = DIRECTION ( 'NONE',  ( -1.000000000000000000, 0.0000000000000000000, 0.0000000000000000000 ) ) ;
#35 = CARTESIAN_POINT ( 'NONE',  ( -2.226774012367180100E-017, 5.000000000000000000, 0.0000000000000000000 ) ) ;
#36 = PRODUCT_DEFINITION ( 'UNKNOWN', '', #384, #365 ) ;
#37 = PLANE ( 'NONE',  #339 ) ;
#38 = ORIENTED_EDGE ( 'NONE', *, *, #315, .F. ) ;
#39 = ORIENTED_EDGE ( 'NONE', *, *, #198, .F. ) ;
#40 = ADVANCED_FACE ( 'NONE', ( #232 ), #95, .F. ) ;
#41 = DIRECTION ( 'NONE',  ( -4.453548024734360700E-018, 1.000000000000000000, -0.0000000000000000000 ) ) ;
#42 = CIRCLE ( 'NONE', #357, 14.54563352012554300 ) ;
#43 = DIRECTION ( 'NONE',  ( -1.000000000000000000, -4.453548024734360700E-018, 0.0000000000000000000 ) ) ;
#44 = EDGE_LOOP ( 'NONE', ( #38, #171, #30, #313 ) ) ;
#45 = CONICAL_SURFACE ( 'NONE', #93, 14.54563352012554300, 0.3718560738485814900 ) ;
#46 = ORIENTED_EDGE ( 'NONE', *, *, #124, .T. ) ;
#47 = CARTESIAN_POINT ( 'NONE',  ( 0.0000000000000000000, 0.0000000000000000000, 0.0000000000000000000 ) ) ;
#48 = EDGE_CURVE ( 'NONE', #146, #52, #206, .T. ) ;
#49 = CARTESIAN_POINT ( 'NONE',  ( 13.98664078706146800, 6.229017644988664500E-017, 1.769916875510993300E-015 ) ) ;
#50 = CARTESIAN_POINT ( 'NONE',  ( 0.0000000000000000000, 0.0000000000000000000, 0.0000000000000000000 ) ) ;
#51 = MECHANICAL_DESIGN_GEOMETRIC_PRESENTATION_REPRESENTATION (  '', ( #221 ), #81 ) ;
#52 = VERTEX_POINT ( 'NONE', #392 ) ;
#53 = CYLINDRICAL_SURFACE ( 'NONE', #346, 5.000000000000000000 ) ;
#54 = ADVANCED_FACE ( 'NONE', ( #162 ), #53, .F. ) ;
#55 = DIRECTION ( 'NONE',  ( -4.453548024734360700E-018, 1.000000000000000000, -0.0000000000000000000 ) ) ;
#56 = EDGE_CURVE ( 'NONE', #94, #350, #191, .T. ) ;
#57 = EDGE_LOOP ( 'NONE', ( #70, #22 ) ) ;
#58 = DIRECTION ( 'NONE',  ( -1.000000000000000000, 0.0000000000000000000, 0.0000000000000000000 ) ) ;
#59 = DIRECTION ( 'NONE',  ( -4.453548024734360700E-018, 1.000000000000000000, -0.0000000000000000000 ) ) ;
#60 =( NAMED_UNIT ( * ) PLANE_ANGLE_UNIT ( ) SI_UNIT ( $, .RADIAN. ) );
#61 = EDGE_CURVE ( 'NONE', #350, #260, #323, .T. ) ;
#62 = ORIENTED_EDGE ( 'NONE', *, *, #176, .F. ) ;
#63 = CARTESIAN_POINT ( 'NONE',  ( 14.54563352012554300, 1.218007165894997600, 0.0000000000000000000 ) ) ;
#64 =( GEOMETRIC_REPRESENTATION_CONTEXT ( 3 ) GLOBAL_UNCERTAINTY_ASSIGNED_CONTEXT ( ( #201 ) ) GLOBAL_UNIT_ASSIGNED_CONTEXT ( ( #177, #20, #17 ) ) REPRESENTATION_CONTEXT ( 'NONE', 'WORKASPACE' ) );
#65 = ORIENTED_EDGE ( 'NONE', *, *, #145, .T. ) ;
#66 = TOROIDAL_SURFACE ( 'NONE', #257, 13.98664078706148000, 1.000000000000000200 ) ;
#67 = DIRECTION ( 'NONE',  ( -4.453548024734360700E-018, 1.000000000000000000, -0.0000000000000000000 ) ) ;
#68 = EDGE_CURVE ( 'NONE', #196, #322, #151, .T. ) ;
#69 = LINE ( 'NONE', #376, #229 ) ;
#70 = ORIENTED_EDGE ( 'NONE', *, *, #306, .F. ) ;
#71 = ORIENTED_EDGE ( 'NONE', *, *, #100, .T. ) ;
#72 = DIRECTION ( 'NONE',  ( -1.224646799147353200E-016, -5.454023333339952000E-034, 1.000000000000000000 ) ) ;
#73 = VECTOR ( 'NONE', #138, 999.9999999999998900 ) ;
#74 = AXIS2_PLACEMENT_3D ( 'NONE', #394, #24, #25 ) ;
#75 = CARTESIAN_POINT ( 'NONE',  ( -14.91829534216825500, 1.363345276491655400, 1.826964263952122200E-015 ) ) ;
#76 = DIRECTION ( 'NONE',  ( -1.000000000000000000, -4.453548024734360700E-018, 0.0000000000000000000 ) ) ;
#77 = DIRECTION ( 'NONE',  ( -4.453548024734360700E-018, 1.000000000000000000, -0.0000000000000000000 ) ) ;
#78 = DIRECTION ( 'NONE',  ( 1.000000000000000000, 0.0000000000000000000, 1.224646799147353500E-016 ) ) ;
#79 = PRESENTATION_STYLE_ASSIGNMENT (( #14 ) ) ;
#80 =( NAMED_UNIT ( * ) PLANE_ANGLE_UNIT ( ) SI_UNIT ( $, .RADIAN. ) );
#81 =( GEOMETRIC_REPRESENTATION_CONTEXT ( 3 ) GLOBAL_UNCERTAINTY_ASSIGNED_CONTEXT ( ( #28 ) ) GLOBAL_UNIT_ASSIGNED_CONTEXT ( ( #274, #80, #387 ) ) REPRESENTATION_CONTEXT ( 'NONE', 'WORKASPACE' ) );
#82 = VERTEX_POINT ( 'NONE', #282 ) ;
#83 = EDGE_LOOP ( 'NONE', ( #248, #312 ) ) ;
#84 = SHAPE_DEFINITION_REPRESENTATION ( #319, #393 ) ;
#85 = CIRCLE ( 'NONE', #215, 5.000000000000000000 ) ;
#86 = AXIS2_PLACEMENT_3D ( 'NONE', #50, #142, #114 ) ;
#87 = AXIS2_PLACEMENT_3D ( 'NONE', #202, #101, #374 ) ;
#88 = ORIENTED_EDGE ( 'NONE', *, *, #124, .F. ) ;
#89 = DIRECTION ( 'NONE',  ( -1.000000000000000000, 0.0000000000000000000, 0.0000000000000000000 ) ) ;
#90 =( NAMED_UNIT ( * ) SI_UNIT ( $, .STERADIAN. ) SOLID_ANGLE_UNIT ( ) );
#91 = CARTESIAN_POINT ( 'NONE',  ( 0.0000000000000000000, 1.000000000000000200, 0.0000000000000000000 ) ) ;
#92 = SURFACE_SIDE_STYLE ('',( #301 ) ) ;
#93 = AXIS2_PLACEMENT_3D ( 'NONE', #338, #121, #187 ) ;
#94 = VERTEX_POINT ( 'NONE', #366 ) ;
#95 = CYLINDRICAL_SURFACE ( 'NONE', #3, 5.000000000000000000 ) ;
#96 = CARTESIAN_POINT ( 'NONE',  ( 0.0000000000000000000, 0.0000000000000000000, 0.0000000000000000000 ) ) ;
#97 = ADVANCED_FACE ( 'NONE', ( #216 ), #136, .F. ) ;
#98 = ORIENTED_EDGE ( 'NONE', *, *, #32, .F. ) ;
#99 = ADVANCED_FACE ( 'NONE', ( #222 ), #66, .T. ) ;
#100 = EDGE_CURVE ( 'NONE', #322, #196, #288, .T. ) ;
#101 = DIRECTION ( 'NONE',  ( -1.224646799147353200E-016, -5.454023333339952000E-034, 1.000000000000000000 ) ) ;
#102 = TOROIDAL_SURFACE ( 'NONE', #18, 13.98664078706148000, 1.000000000000000200 ) ;
#103 = CIRCLE ( 'NONE', #265, 0.5999999999999998700 ) ;
#104 = VERTEX_POINT ( 'NONE', #367 ) ;
#105 = DIRECTION ( 'NONE',  ( 1.000000000000000000, 4.453548024734360700E-018, 0.0000000000000000000 ) ) ;
#106 = AXIS2_PLACEMENT_3D ( 'NONE', #382, #16, #304 ) ;
#107 = PRESENTATION_LAYER_ASSIGNMENT (  '', '', ( #221 ) ) ;
#108 = CIRCLE ( 'NONE', #139, 13.07065631482459300 ) ;
#109 = PLANE ( 'NONE',  #377 ) ;
#110 = ADVANCED_FACE ( 'NONE', ( #1 ), #45, .F. ) ;
#111 = APPLICATION_PROTOCOL_DEFINITION ( 'draft international standard', 'automotive_design', 1998, #243 ) ;
#112 = VERTEX_POINT ( 'NONE', #334 ) ;
#113 = FILL_AREA_STYLE_COLOUR ( '', #186 ) ;
#114 = DIRECTION ( 'NONE',  ( 1.000000000000000000, 0.0000000000000000000, 0.0000000000000000000 ) ) ;
#115 = DIRECTION ( 'NONE',  ( -4.453548024734360700E-018, 1.000000000000000000, 0.0000000000000000000 ) ) ;
#116 = CIRCLE ( 'NONE', #87, 0.5999999999999998700 ) ;
#117 = AXIS2_PLACEMENT_3D ( 'NONE', #47, #276, #175 ) ;
#118 = ORIENTED_EDGE ( 'NONE', *, *, #354, .T. ) ;
#119 = AXIS2_PLACEMENT_3D ( 'NONE', #193, #189, #89 ) ;
#120 = ORIENTED_EDGE ( 'NONE', *, *, #335, .F. ) ;
#121 = DIRECTION ( 'NONE',  ( 4.453548024734360700E-018, -1.000000000000000000, 0.0000000000000000000 ) ) ;
#122 = CIRCLE ( 'NONE', #263, 5.000000000000000000 ) ;
#123 = DIRECTION ( 'NONE',  ( 1.000000000000000000, 0.0000000000000000000, 0.0000000000000000000 ) ) ;
#124 = EDGE_CURVE ( 'NONE', #104, #195, #314, .T. ) ;
#125 = ORIENTED_EDGE ( 'NONE', *, *, #61, .T. ) ;
#126 = DIRECTION ( 'NONE',  ( 4.453548024734360700E-018, -1.000000000000000000, 0.0000000000000000000 ) ) ;
#127 = ORIENTED_EDGE ( 'NONE', *, *, #68, .F. ) ;
#128 = DIRECTION ( 'NONE',  ( 0.3633452764916441600, -0.9316545551067793000, 0.0000000000000000000 ) ) ;
#129 = CIRCLE ( 'NONE', #2, 13.98664078706146800 ) ;
#130 = DIRECTION ( 'NONE',  ( -1.000000000000000000, -4.453548024734360700E-018, 0.0000000000000000000 ) ) ;
#131 = MANIFOLD_SOLID_BREP ( 'Âûðåç-Âûòÿíóòü1', #5 ) ;
#132 = AXIS2_PLACEMENT_3D ( 'NONE', #307, #115, #13 ) ;
#133 = AXIS2_PLACEMENT_3D ( 'NONE', #378, #209, #296 ) ;
#134 = CIRCLE ( 'NONE', #396, 14.91829534216825500 ) ;
#135 = CARTESIAN_POINT ( 'NONE',  ( -5.424453407783965400E-018, 1.218007165894998000, 0.0000000000000000000 ) ) ;
#136 = CONICAL_SURFACE ( 'NONE', #233, 14.54563352012554300, 0.3718560738485814900 ) ;
#137 = ORIENTED_EDGE ( 'NONE', *, *, #176, .T. ) ;
#138 = DIRECTION ( 'NONE',  ( 0.3633452764916441600, -0.9316545551067793000, 0.0000000000000000000 ) ) ;
#139 = AXIS2_PLACEMENT_3D ( 'NONE', #285, #223, #321 ) ;
#140 = DIRECTION ( 'NONE',  ( -1.000000000000000000, 0.0000000000000000000, 0.0000000000000000000 ) ) ;
#141 = LINE ( 'NONE', #210, #73 ) ;
#142 = DIRECTION ( 'NONE',  ( 0.0000000000000000000, 0.0000000000000000000, 1.000000000000000000 ) ) ;
#143 = APPLICATION_PROTOCOL_DEFINITION ( 'draft international standard', 'automotive_design', 1998, #247 ) ;
#144 = DIRECTION ( 'NONE',  ( -1.000000000000000000, -4.453548024734360700E-018, 0.0000000000000000000 ) ) ;
#145 = EDGE_CURVE ( 'NONE', #350, #94, #108, .T. ) ;
#146 = VERTEX_POINT ( 'NONE', #29 ) ;
#147 = DIRECTION ( 'NONE',  ( -4.453548024734360700E-018, 1.000000000000000000, -0.0000000000000000000 ) ) ;
#148 = CARTESIAN_POINT ( 'NONE',  ( 0.0000000000000000000, 1.000000000000000200, 0.0000000000000000000 ) ) ;
#149 = FACE_OUTER_BOUND ( 'NONE', #27, .T. ) ;
#150 = EDGE_LOOP ( 'NONE', ( #15, #373, #125, #167 ) ) ;
#151 = CIRCLE ( 'NONE', #320, 13.98664078706147300 ) ;
#152 = PRODUCT_RELATED_PRODUCT_CATEGORY ( 'part', '', ( #6 ) ) ;
#153 = LINE ( 'NONE', #75, #200 ) ;
#154 = CARTESIAN_POINT ( 'NONE',  ( 5.000000000000000000, 2.226774012367180400E-017, 6.123233995736766300E-016 ) ) ;
#155 = AXIS2_PLACEMENT_3D ( 'NONE', #259, #59, #254 ) ;
#156 = DIRECTION ( 'NONE',  ( -4.453548024734360700E-018, 1.000000000000000000, -0.0000000000000000000 ) ) ;
#157 = CARTESIAN_POINT ( 'NONE',  ( -13.98664078706147300, 0.3999999999999999100, 0.0000000000000000000 ) ) ;
#158 = DIRECTION ( 'NONE',  ( -1.000000000000000000, 0.0000000000000000000, 0.0000000000000000000 ) ) ;
#159 = AXIS2_PLACEMENT_3D ( 'NONE', #135, #165, #368 ) ;
#160 = DIRECTION ( 'NONE',  ( -4.453548024734360700E-018, 1.000000000000000000, -0.0000000000000000000 ) ) ;
#161 = ORIENTED_EDGE ( 'NONE', *, *, #188, .F. ) ;
#162 = FACE_OUTER_BOUND ( 'NONE', #163, .T. ) ;
#163 = EDGE_LOOP ( 'NONE', ( #261, #295, #361, #9 ) ) ;
#164 = DIRECTION ( 'NONE',  ( -1.000000000000000000, 0.0000000000000000000, 0.0000000000000000000 ) ) ;
#165 = DIRECTION ( 'NONE',  ( -4.453548024734360700E-018, 1.000000000000000000, -0.0000000000000000000 ) ) ;
#166 = AXIS2_PLACEMENT_3D ( 'NONE', #236, #41, #299 ) ;
#167 = ORIENTED_EDGE ( 'NONE', *, *, #169, .F. ) ;
#168 = ORIENTED_EDGE ( 'NONE', *, *, #270, .T. ) ;
#169 = EDGE_CURVE ( 'NONE', #82, #260, #203, .T. ) ;
#170 = CARTESIAN_POINT ( 'NONE',  ( -13.98664078706146800, -6.229017644988664500E-017, 0.0000000000000000000 ) ) ;
#171 = ORIENTED_EDGE ( 'NONE', *, *, #383, .T. ) ;
#172 = EDGE_LOOP ( 'NONE', ( #281, #10 ) ) ;
#173 = CARTESIAN_POINT ( 'NONE',  ( 14.54563352012554300, 1.218007165894998000, 1.781326353199219400E-015 ) ) ;
#174 = CARTESIAN_POINT ( 'NONE',  ( 0.0000000000000000000, 0.0000000000000000000, 0.0000000000000000000 ) ) ;
#175 = DIRECTION ( 'NONE',  ( -1.000000000000000000, -4.453548024734360700E-018, 0.0000000000000000000 ) ) ;
#176 = EDGE_CURVE ( 'NONE', #322, #260, #116, .T. ) ;
#177 =( LENGTH_UNIT ( ) NAMED_UNIT ( * ) SI_UNIT ( .MILLI., .METRE. ) );
#178 = AXIS2_PLACEMENT_3D ( 'NONE', #194, #204, #228 ) ;
#179 = ORIENTED_EDGE ( 'NONE', *, *, #145, .F. ) ;
#180 = ORIENTED_EDGE ( 'NONE', *, *, #388, .F. ) ;
#181 = DIRECTION ( 'NONE',  ( -1.000000000000000000, -4.453548024734360700E-018, 0.0000000000000000000 ) ) ;
#182 = FACE_BOUND ( 'NONE', #83, .T. ) ;
#183 = ORIENTED_EDGE ( 'NONE', *, *, #169, .T. ) ;
#184 = EDGE_LOOP ( 'NONE', ( #211, #71 ) ) ;
#185 = CARTESIAN_POINT ( 'NONE',  ( -5.424453407783963900E-018, 1.218007165894997600, 0.0000000000000000000 ) ) ;
#186 = COLOUR_RGB ( '',0.7921568627450980000, 0.8196078431372548800, 0.9333333333333333500 ) ;
#187 = DIRECTION ( 'NONE',  ( 1.000000000000000000, 0.0000000000000000000, 0.0000000000000000000 ) ) ;
#188 = EDGE_CURVE ( 'NONE', #196, #82, #103, .T. ) ;
#189 = DIRECTION ( 'NONE',  ( -4.453548024734360700E-018, 1.000000000000000000, -0.0000000000000000000 ) ) ;
#190 = ORIENTED_EDGE ( 'NONE', *, *, #270, .F. ) ;
#191 = CIRCLE ( 'NONE', #155, 13.07065631482459300 ) ;
#192 = DIRECTION ( 'NONE',  ( -4.453548024734360700E-018, 1.000000000000000000, -0.0000000000000000000 ) ) ;
#193 = CARTESIAN_POINT ( 'NONE',  ( -6.071723663150332600E-018, 1.363345276491655400, 0.0000000000000000000 ) ) ;
#194 = CARTESIAN_POINT ( 'NONE',  ( -6.071723663150332600E-018, 1.363345276491655400, 0.0000000000000000000 ) ) ;
#195 = VERTEX_POINT ( 'NONE', #4 ) ;
#196 = VERTEX_POINT ( 'NONE', #157 ) ;
#197 = ORIENTED_EDGE ( 'NONE', *, *, #219, .T. ) ;
#198 = EDGE_CURVE ( 'NONE', #52, #146, #344, .T. ) ;
#199 = DIRECTION ( 'NONE',  ( -4.453548024734360700E-018, 1.000000000000000000, -0.0000000000000000000 ) ) ;
#200 = VECTOR ( 'NONE', #347, 999.9999999999998900 ) ;
#201 = UNCERTAINTY_MEASURE_WITH_UNIT (LENGTH_MEASURE( 1.000000000000000100E-005 ), #177, 'distance_accuracy_value', 'NONE');
#202 = CARTESIAN_POINT ( 'NONE',  ( 13.98664078706148000, 1.000000000000000200, 1.712869487069865800E-015 ) ) ;
#203 = CIRCLE ( 'NONE', #159, 14.54563352012554300 ) ;
#204 = DIRECTION ( 'NONE',  ( 4.453548024734360700E-018, -1.000000000000000000, 0.0000000000000000000 ) ) ;
#205 = ADVANCED_FACE ( 'NONE', ( #298 ), #280, .T. ) ;
#206 = CIRCLE ( 'NONE', #244, 13.50000000000000000 ) ;
#207 = MECHANICAL_DESIGN_GEOMETRIC_PRESENTATION_REPRESENTATION (  '', ( #226 ), #294 ) ;
#208 = DIRECTION ( 'NONE',  ( 1.000000000000000000, 0.0000000000000000000, 0.0000000000000000000 ) ) ;
#209 = DIRECTION ( 'NONE',  ( 4.453548024734360700E-018, -1.000000000000000000, 0.0000000000000000000 ) ) ;
#210 = CARTESIAN_POINT ( 'NONE',  ( 14.91829534216825500, 1.363345276491655400, 0.0000000000000000000 ) ) ;
#211 = ORIENTED_EDGE ( 'NONE', *, *, #68, .T. ) ;
#212 = CARTESIAN_POINT ( 'NONE',  ( -1.781419209893744100E-018, 0.3999999999999999700, 0.0000000000000000000 ) ) ;
#213 = PLANE ( 'NONE',  #106 ) ;
#214 = VECTOR ( 'NONE', #245, 1000.000000000000000 ) ;
#215 = AXIS2_PLACEMENT_3D ( 'NONE', #252, #23, #58 ) ;
#216 = FACE_OUTER_BOUND ( 'NONE', #150, .T. ) ;
#217 = EDGE_CURVE ( 'NONE', #356, #33, #267, .T. ) ;
#218 = SURFACE_STYLE_USAGE ( .BOTH. , #92 ) ;
#219 = EDGE_CURVE ( 'NONE', #94, #82, #273, .T. ) ;
#220 = ORIENTED_EDGE ( 'NONE', *, *, #56, .F. ) ;
#221 = STYLED_ITEM ( 'NONE', ( #79 ), #393 ) ;
#222 = FACE_OUTER_BOUND ( 'NONE', #44, .T. ) ;
#223 = DIRECTION ( 'NONE',  ( -4.453548024734360700E-018, 1.000000000000000000, -0.0000000000000000000 ) ) ;
#224 = FACE_OUTER_BOUND ( 'NONE', #385, .T. ) ;
#225 = CARTESIAN_POINT ( 'NONE',  ( 2.672128814840617800E-018, 0.3999999999999999700, 0.0000000000000000000 ) ) ;
#226 = STYLED_ITEM ( 'NONE', ( #237 ), #131 ) ;
#227 = ORIENTED_EDGE ( 'NONE', *, *, #328, .T. ) ;
#228 = DIRECTION ( 'NONE',  ( 1.000000000000000000, 0.0000000000000000000, 0.0000000000000000000 ) ) ;
#229 = VECTOR ( 'NONE', #329, 1000.000000000000000 ) ;
#230 = ADVANCED_FACE ( 'NONE', ( #341, #235 ), #37, .F. ) ;
#231 = EDGE_LOOP ( 'NONE', ( #395, #137, #168, #161 ) ) ;
#232 = FACE_OUTER_BOUND ( 'NONE', #327, .T. ) ;
#233 = AXIS2_PLACEMENT_3D ( 'NONE', #185, #126, #123 ) ;
#234 = DIRECTION ( 'NONE',  ( -4.453548024734360700E-018, 1.000000000000000000, -0.0000000000000000000 ) ) ;
#235 = FACE_BOUND ( 'NONE', #278, .T. ) ;
#236 = CARTESIAN_POINT ( 'NONE',  ( 0.0000000000000000000, 1.000000000000000200, 0.0000000000000000000 ) ) ;
#237 = PRESENTATION_STYLE_ASSIGNMENT (( #218 ) ) ;
#238 = ORIENTED_EDGE ( 'NONE', *, *, #354, .F. ) ;
#239 = CARTESIAN_POINT ( 'NONE',  ( 13.50000000000000000, 4.999999999999999100, 0.0000000000000000000 ) ) ;
#240 = PRODUCT_CONTEXT ( 'NONE', #243, 'mechanical' ) ;
#241 = CIRCLE ( 'NONE', #132, 5.000000000000000000 ) ;
#242 = CARTESIAN_POINT ( 'NONE',  ( -5.000000000000000000, -2.226774012367180400E-017, 0.0000000000000000000 ) ) ;
#243 = APPLICATION_CONTEXT ( 'automotive_design' ) ;
#244 = AXIS2_PLACEMENT_3D ( 'NONE', #364, #156, #158 ) ;
#245 = DIRECTION ( 'NONE',  ( -4.453548024734360700E-018, 1.000000000000000000, -0.0000000000000000000 ) ) ;
#246 = ADVANCED_FACE ( 'NONE', ( #149 ), #325, .T. ) ;
#247 = APPLICATION_CONTEXT ( 'automotive_design' ) ;
#248 = ORIENTED_EDGE ( 'NONE', *, *, #217, .T. ) ;
#249 = VERTEX_POINT ( 'NONE', #170 ) ;
#250 = FACE_OUTER_BOUND ( 'NONE', #184, .T. ) ;
#251 = AXIS2_PLACEMENT_3D ( 'NONE', #31, #192, #398 ) ;
#252 = CARTESIAN_POINT ( 'NONE',  ( -1.781419209893744100E-018, 0.3999999999999999700, 0.0000000000000000000 ) ) ;
#253 = CARTESIAN_POINT ( 'NONE',  ( 4.275406103744986700E-017, -9.600000000000001400, 0.0000000000000000000 ) ) ;
#254 = DIRECTION ( 'NONE',  ( 1.000000000000000000, 0.0000000000000000000, 0.0000000000000000000 ) ) ;
#255 = ORIENTED_EDGE ( 'NONE', *, *, #7, .F. ) ;
#256 =( LENGTH_UNIT ( ) NAMED_UNIT ( * ) SI_UNIT ( .MILLI., .METRE. ) );
#257 = AXIS2_PLACEMENT_3D ( 'NONE', #91, #284, #130 ) ;
#258 = SURFACE_STYLE_FILL_AREA ( #303 ) ;
#259 = CARTESIAN_POINT ( 'NONE',  ( -2.226774012367180100E-017, 4.999999999999999100, 0.0000000000000000000 ) ) ;
#260 = VERTEX_POINT ( 'NONE', #173 ) ;
#261 = ORIENTED_EDGE ( 'NONE', *, *, #336, .F. ) ;
#262 = ADVANCED_FACE ( 'NONE', ( #375, #250 ), #109, .T. ) ;
#263 = AXIS2_PLACEMENT_3D ( 'NONE', #272, #147, #144 ) ;
#264 = DIRECTION ( 'NONE',  ( -0.3633452764916441600, -0.9316545551067793000, 4.449696298408021200E-017 ) ) ;
#265 = AXIS2_PLACEMENT_3D ( 'NONE', #340, #371, #370 ) ;
#266 = ORIENTED_EDGE ( 'NONE', *, *, #48, .F. ) ;
#267 = CIRCLE ( 'NONE', #311, 5.000000000000000000 ) ;
#268 = DIRECTION ( 'NONE',  ( -4.453548024734360700E-018, 1.000000000000000000, -0.0000000000000000000 ) ) ;
#269 = ORIENTED_EDGE ( 'NONE', *, *, #328, .F. ) ;
#270 = EDGE_CURVE ( 'NONE', #260, #82, #42, .T. ) ;
#271 = DIRECTION ( 'NONE',  ( -4.453548024734360700E-018, 1.000000000000000000, -0.0000000000000000000 ) ) ;
#272 = CARTESIAN_POINT ( 'NONE',  ( 0.0000000000000000000, 0.0000000000000000000, 0.0000000000000000000 ) ) ;
#273 = LINE ( 'NONE', #292, #19 ) ;
#274 =( LENGTH_UNIT ( ) NAMED_UNIT ( * ) SI_UNIT ( .MILLI., .METRE. ) );
#275 = TOROIDAL_SURFACE ( 'NONE', #166, 13.98664078706148000, 0.6000000000000003100 ) ;
#276 = DIRECTION ( 'NONE',  ( -4.453548024734360700E-018, 1.000000000000000000, -0.0000000000000000000 ) ) ;
#277 = DIRECTION ( 'NONE',  ( -1.000000000000000000, 0.0000000000000000000, 0.0000000000000000000 ) ) ;
#278 = EDGE_LOOP ( 'NONE', ( #179, #220 ) ) ;
#279 = FACE_OUTER_BOUND ( 'NONE', #343, .T. ) ;
#280 = CONICAL_SURFACE ( 'NONE', #178, 14.91829534216825500, 0.3718560738485814900 ) ;
#281 = ORIENTED_EDGE ( 'NONE', *, *, #48, .T. ) ;
#282 = CARTESIAN_POINT ( 'NONE',  ( -14.54563352012554300, 1.218007165894998000, 0.0000000000000000000 ) ) ;
#283 = AXIS2_PLACEMENT_3D ( 'NONE', #379, #72, #78 ) ;
#284 = DIRECTION ( 'NONE',  ( -4.453548024734360700E-018, 1.000000000000000000, -0.0000000000000000000 ) ) ;
#285 = CARTESIAN_POINT ( 'NONE',  ( -2.226774012367180100E-017, 4.999999999999999100, 0.0000000000000000000 ) ) ;
#286 = ORIENTED_EDGE ( 'NONE', *, *, #315, .T. ) ;
#287 = ORIENTED_EDGE ( 'NONE', *, *, #336, .T. ) ;
#288 = CIRCLE ( 'NONE', #251, 13.98664078706147300 ) ;
#289 = DIRECTION ( 'NONE',  ( -4.453548024734360700E-018, 1.000000000000000000, -0.0000000000000000000 ) ) ;
#290 = ORIENTED_EDGE ( 'NONE', *, *, #188, .T. ) ;
#291 = PRESENTATION_LAYER_ASSIGNMENT (  '', '', ( #226 ) ) ;
#292 = CARTESIAN_POINT ( 'NONE',  ( -14.54563352012554300, 1.218007165894997600, 1.781326353199219400E-015 ) ) ;
#293 = EDGE_LOOP ( 'NONE', ( #65, #197, #190, #308 ) ) ;
#294 =( GEOMETRIC_REPRESENTATION_CONTEXT ( 3 ) GLOBAL_UNCERTAINTY_ASSIGNED_CONTEXT ( ( #310 ) ) GLOBAL_UNIT_ASSIGNED_CONTEXT ( ( #256, #60, #90 ) ) REPRESENTATION_CONTEXT ( 'NONE', 'WORKASPACE' ) );
#295 = ORIENTED_EDGE ( 'NONE', *, *, #217, .F. ) ;
#296 = DIRECTION ( 'NONE',  ( 1.000000000000000000, 0.0000000000000000000, 0.0000000000000000000 ) ) ;
#297 = CARTESIAN_POINT ( 'NONE',  ( -6.071723663150332600E-018, 1.363345276491655400, 0.0000000000000000000 ) ) ;
#298 = FACE_OUTER_BOUND ( 'NONE', #317, .T. ) ;
#299 = DIRECTION ( 'NONE',  ( -1.000000000000000000, -4.453548024734360700E-018, 0.0000000000000000000 ) ) ;
#300 = SURFACE_SIDE_STYLE ('',( #258 ) ) ;
#301 = SURFACE_STYLE_FILL_AREA ( #360 ) ;
#302 = CARTESIAN_POINT ( 'NONE',  ( 0.0000000000000000000, 1.000000000000000200, 0.0000000000000000000 ) ) ;
#303 = FILL_AREA_STYLE ('',( #113 ) ) ;
#304 = DIRECTION ( 'NONE',  ( -1.000000000000000000, -4.453548024734360700E-018, 0.0000000000000000000 ) ) ;
#305 = CIRCLE ( 'NONE', #117, 13.98664078706146800 ) ;
#306 = EDGE_CURVE ( 'NONE', #249, #369, #129, .T. ) ;
#307 = CARTESIAN_POINT ( 'NONE',  ( -1.781419209893744100E-018, 0.3999999999999999700, 0.0000000000000000000 ) ) ;
#308 = ORIENTED_EDGE ( 'NONE', *, *, #61, .F. ) ;
#309 = DIRECTION ( 'NONE',  ( -4.453548024734360700E-018, 1.000000000000000000, -0.0000000000000000000 ) ) ;
#310 = UNCERTAINTY_MEASURE_WITH_UNIT (LENGTH_MEASURE( 1.000000000000000100E-005 ), #256, 'distance_accuracy_value', 'NONE');
#311 = AXIS2_PLACEMENT_3D ( 'NONE', #96, #67, #12 ) ;
#312 = ORIENTED_EDGE ( 'NONE', *, *, #388, .T. ) ;
#313 = ORIENTED_EDGE ( 'NONE', *, *, #331, .F. ) ;
#314 = CIRCLE ( 'NONE', #119, 14.91829534216825500 ) ;
#315 = EDGE_CURVE ( 'NONE', #369, #195, #330, .T. ) ;
#316 = CARTESIAN_POINT ( 'NONE',  ( 4.275406103744986700E-017, -9.600000000000001400, 0.0000000000000000000 ) ) ;
#317 = EDGE_LOOP ( 'NONE', ( #120, #266, #227, #355 ) ) ;
#318 = DIRECTION ( 'NONE',  ( -1.000000000000000000, -3.875849065518504800E-018, 0.0000000000000000000 ) ) ;
#319 = PRODUCT_DEFINITION_SHAPE ( 'NONE', 'NONE',  #36 ) ;
#320 = AXIS2_PLACEMENT_3D ( 'NONE', #225, #160, #318 ) ;
#321 = DIRECTION ( 'NONE',  ( 1.000000000000000000, 0.0000000000000000000, 0.0000000000000000000 ) ) ;
#322 = VERTEX_POINT ( 'NONE', #381 ) ;
#323 = LINE ( 'NONE', #63, #390 ) ;
#324 = DIRECTION ( 'NONE',  ( -1.000000000000000000, -4.453548024734360700E-018, 0.0000000000000000000 ) ) ;
#325 = CONICAL_SURFACE ( 'NONE', #133, 14.91829534216825500, 0.3718560738485814900 ) ;
#326 = ADVANCED_FACE ( 'NONE', ( #224 ), #102, .T. ) ;
#327 = EDGE_LOOP ( 'NONE', ( #180, #287, #118, #372 ) ) ;
#328 = EDGE_CURVE ( 'NONE', #146, #195, #141, .T. ) ;
#329 = DIRECTION ( 'NONE',  ( -4.453548024734360700E-018, 1.000000000000000000, -0.0000000000000000000 ) ) ;
#330 = CIRCLE ( 'NONE', #283, 1.000000000000000900 ) ;
#331 = EDGE_CURVE ( 'NONE', #195, #104, #134, .T. ) ;
#332 = ORIENTED_EDGE ( 'NONE', *, *, #306, .T. ) ;
#333 = FACE_OUTER_BOUND ( 'NONE', #231, .T. ) ;
#334 = CARTESIAN_POINT ( 'NONE',  ( -5.000000000000000000, 0.3999999999999999700, 0.0000000000000000000 ) ) ;
#335 = EDGE_CURVE ( 'NONE', #52, #104, #153, .T. ) ;
#336 = EDGE_CURVE ( 'NONE', #33, #26, #69, .T. ) ;
#337 = FILL_AREA_STYLE_COLOUR ( '', #363 ) ;
#338 = CARTESIAN_POINT ( 'NONE',  ( -5.424453407783963900E-018, 1.218007165894997600, 0.0000000000000000000 ) ) ;
#339 = AXIS2_PLACEMENT_3D ( 'NONE', #239, #348, #105 ) ;
#340 = CARTESIAN_POINT ( 'NONE',  ( -13.98664078706148000, 1.000000000000000200, 0.0000000000000000000 ) ) ;
#341 = FACE_OUTER_BOUND ( 'NONE', #172, .T. ) ;
#342 = AXIS2_PLACEMENT_3D ( 'NONE', #35, #199, #164 ) ;
#343 = EDGE_LOOP ( 'NONE', ( #62, #127, #290, #183 ) ) ;
#344 = CIRCLE ( 'NONE', #342, 13.50000000000000000 ) ;
#345 = ADVANCED_FACE ( 'NONE', ( #333 ), #275, .F. ) ;
#346 = AXIS2_PLACEMENT_3D ( 'NONE', #316, #289, #34 ) ;
#347 = DIRECTION ( 'NONE',  ( -0.3633452764916441600, -0.9316545551067793000, 4.449696298408021200E-017 ) ) ;
#348 = DIRECTION ( 'NONE',  ( 4.453548024734360700E-018, -1.000000000000000000, 0.0000000000000000000 ) ) ;
#349 = CARTESIAN_POINT ( 'NONE',  ( -5.424453407783965400E-018, 1.218007165894998000, 0.0000000000000000000 ) ) ;
#350 = VERTEX_POINT ( 'NONE', #11 ) ;
#351 = CARTESIAN_POINT ( 'NONE',  ( -5.000000000000000000, -9.600000000000001400, 0.0000000000000000000 ) ) ;
#352 = AXIS2_PLACEMENT_3D ( 'NONE', #148, #309, #181 ) ;
#353 = ADVANCED_FACE ( 'NONE', ( #182, #359 ), #213, .F. ) ;
#354 = EDGE_CURVE ( 'NONE', #26, #112, #241, .T. ) ;
#355 = ORIENTED_EDGE ( 'NONE', *, *, #331, .T. ) ;
#356 = VERTEX_POINT ( 'NONE', #242 ) ;
#357 = AXIS2_PLACEMENT_3D ( 'NONE', #349, #77, #208 ) ;
#358 = TOROIDAL_SURFACE ( 'NONE', #352, 13.98664078706148000, 0.6000000000000003100 ) ;
#359 = FACE_OUTER_BOUND ( 'NONE', #57, .T. ) ;
#360 = FILL_AREA_STYLE ('',( #337 ) ) ;
#361 = ORIENTED_EDGE ( 'NONE', *, *, #380, .T. ) ;
#362 = EDGE_LOOP ( 'NONE', ( #255, #238 ) ) ;
#363 = COLOUR_RGB ( '',0.7921568627450980000, 0.8196078431372548800, 0.9333333333333333500 ) ;
#364 = CARTESIAN_POINT ( 'NONE',  ( -2.226774012367180100E-017, 5.000000000000000000, 0.0000000000000000000 ) ) ;
#365 = PRODUCT_DEFINITION_CONTEXT ( 'detailed design', #247, 'design' ) ;
#366 = CARTESIAN_POINT ( 'NONE',  ( -13.07065631482459300, 4.999999999999999100, 1.691010047534863500E-015 ) ) ;
#367 = CARTESIAN_POINT ( 'NONE',  ( -14.91829534216825500, 1.363345276491655400, 0.0000000000000000000 ) ) ;
#368 = DIRECTION ( 'NONE',  ( 1.000000000000000000, 0.0000000000000000000, 0.0000000000000000000 ) ) ;
#369 = VERTEX_POINT ( 'NONE', #49 ) ;
#370 = DIRECTION ( 'NONE',  ( -1.000000000000000000, 0.0000000000000000000, 0.0000000000000000000 ) ) ;
#371 = DIRECTION ( 'NONE',  ( 0.0000000000000000000, -0.0000000000000000000, -1.000000000000000000 ) ) ;
#372 = ORIENTED_EDGE ( 'NONE', *, *, #380, .F. ) ;
#373 = ORIENTED_EDGE ( 'NONE', *, *, #56, .T. ) ;
#374 = DIRECTION ( 'NONE',  ( 1.000000000000000000, 0.0000000000000000000, 1.224646799147353200E-016 ) ) ;
#375 = FACE_BOUND ( 'NONE', #362, .T. ) ;
#376 = CARTESIAN_POINT ( 'NONE',  ( 5.000000000000000000, -9.600000000000001400, 6.123233995736766300E-016 ) ) ;
#377 = AXIS2_PLACEMENT_3D ( 'NONE', #212, #8, #43 ) ;
#378 = CARTESIAN_POINT ( 'NONE',  ( -6.071723663150332600E-018, 1.363345276491655400, 0.0000000000000000000 ) ) ;
#379 = CARTESIAN_POINT ( 'NONE',  ( 13.98664078706148000, 1.000000000000000200, 1.712869487069865800E-015 ) ) ;
#380 = EDGE_CURVE ( 'NONE', #356, #112, #389, .T. ) ;
#381 = CARTESIAN_POINT ( 'NONE',  ( 13.98664078706147300, 0.4000000000000000200, 1.747097920134542500E-015 ) ) ;
#382 = CARTESIAN_POINT ( 'NONE',  ( 1.387061461443737100E-034, -3.114508822494332200E-017, 0.0000000000000000000 ) ) ;
#383 = EDGE_CURVE ( 'NONE', #369, #249, #305, .T. ) ;
#384 = PRODUCT_DEFINITION_FORMATION_WITH_SPECIFIED_SOURCE ( 'ANY', '', #6, .NOT_KNOWN. ) ;
#385 = EDGE_LOOP ( 'NONE', ( #332, #286, #88, #98 ) ) ;
#386 = CIRCLE ( 'NONE', #74, 1.000000000000000900 ) ;
#387 =( NAMED_UNIT ( * ) SI_UNIT ( $, .STERADIAN. ) SOLID_ANGLE_UNIT ( ) );
#388 = EDGE_CURVE ( 'NONE', #33, #356, #122, .T. ) ;
#389 = LINE ( 'NONE', #351, #214 ) ;
#390 = VECTOR ( 'NONE', #128, 999.9999999999998900 ) ;
#391 = CARTESIAN_POINT ( 'NONE',  ( 5.000000000000000000, 0.3999999999999999700, 6.123233995736766300E-016 ) ) ;
#392 = CARTESIAN_POINT ( 'NONE',  ( -13.50000000000000000, 5.000000000000000000, 1.740118721400524500E-015 ) ) ;
#393 = ADVANCED_BREP_SHAPE_REPRESENTATION ( 'ð¨ª. KRT508', ( #131, #86 ), #64 ) ;
#394 = CARTESIAN_POINT ( 'NONE',  ( -13.98664078706148000, 1.000000000000000200, 0.0000000000000000000 ) ) ;
#395 = ORIENTED_EDGE ( 'NONE', *, *, #100, .F. ) ;
#396 = AXIS2_PLACEMENT_3D ( 'NONE', #297, #234, #140 ) ;
#397 = ORIENTED_EDGE ( 'NONE', *, *, #335, .T. ) ;
#398 = DIRECTION ( 'NONE',  ( -1.000000000000000000, -3.875849065518504800E-018, 0.0000000000000000000 ) ) ;
ENDSEC;
END-ISO-10303-21;
