ISO-10303-21;
HEADER;
FILE_DESCRIPTION (( 'STEP AP214' ),
    '1' );
FILE_NAME ('àðò. KRT620.STEP',
    '2014-06-04T09:06:17',
    ( '' ),
    ( '' ),
    'SwSTEP 2.0',
    'SolidWorks 2014',
    '' );
FILE_SCHEMA (( 'AUTOMOTIVE_DESIGN' ));
ENDSEC;

DATA;
#1 = EDGE_CURVE ( 'NONE', #182, #112, #7, .T. ) ;
#2 = CARTESIAN_POINT ( 'NONE',  ( 8.000000000000000000, 5.327213576290986200E-016, -4.349999999999999600 ) ) ;
#3 = ADVANCED_FACE ( 'NONE', ( #227 ), #26, .T. ) ;
#4 = CARTESIAN_POINT ( 'NONE',  ( 0.6000000000000002000, 0.0000000000000000000, 0.0000000000000000000 ) ) ;
#5 = EDGE_CURVE ( 'NONE', #27, #224, #171, .T. ) ;
#6 = CARTESIAN_POINT ( 'NONE',  ( 8.000000000000000000, 0.0000000000000000000, 0.0000000000000000000 ) ) ;
#7 = LINE ( 'NONE', #38, #186 ) ;
#8 = CARTESIAN_POINT ( 'NONE',  ( 0.0000000000000000000, 0.0000000000000000000, 0.0000000000000000000 ) ) ;
#9 = SURFACE_STYLE_USAGE ( .BOTH. , #260 ) ;
#10 = EDGE_CURVE ( 'NONE', #224, #27, #189, .T. ) ;
#11 =( LENGTH_UNIT ( ) NAMED_UNIT ( * ) SI_UNIT ( .MILLI., .METRE. ) );
#12 = DIRECTION ( 'NONE',  ( -1.000000000000000000, -0.0000000000000000000, -0.0000000000000000000 ) ) ;
#13 = ORIENTED_EDGE ( 'NONE', *, *, #268, .T. ) ;
#14 = AXIS2_PLACEMENT_3D ( 'NONE', #23, #229, #153 ) ;
#15 = VERTEX_POINT ( 'NONE', #228 ) ;
#16 = PRESENTATION_STYLE_ASSIGNMENT (( #9 ) ) ;
#17 = EDGE_CURVE ( 'NONE', #15, #218, #22, .T. ) ;
#18 = VERTEX_POINT ( 'NONE', #123 ) ;
#19 = CARTESIAN_POINT ( 'NONE',  ( 8.000000000000000000, 0.0000000000000000000, 0.0000000000000000000 ) ) ;
#20 = AXIS2_PLACEMENT_3D ( 'NONE', #172, #226, #64 ) ;
#21 = CIRCLE ( 'NONE', #208, 3.750000000000000000 ) ;
#22 = CIRCLE ( 'NONE', #67, 6.000000000000000000 ) ;
#23 = CARTESIAN_POINT ( 'NONE',  ( 0.0000000000000000000, 0.0000000000000000000, 0.0000000000000000000 ) ) ;
#24 = DIRECTION ( 'NONE',  ( -1.000000000000000000, 0.0000000000000000000, -0.0000000000000000000 ) ) ;
#25 = DIRECTION ( 'NONE',  ( -1.000000000000000000, -0.0000000000000000000, -0.0000000000000000000 ) ) ;
#26 = CYLINDRICAL_SURFACE ( 'NONE', #20, 6.000000000000000000 ) ;
#27 = VERTEX_POINT ( 'NONE', #2 ) ;
#28 = EDGE_CURVE ( 'NONE', #15, #18, #47, .T. ) ;
#29 =( NAMED_UNIT ( * ) SI_UNIT ( $, .STERADIAN. ) SOLID_ANGLE_UNIT ( ) );
#30 = DIRECTION ( 'NONE',  ( -1.000000000000000000, -0.0000000000000000000, -0.0000000000000000000 ) ) ;
#31 = AXIS2_PLACEMENT_3D ( 'NONE', #180, #45, #213 ) ;
#32 = PRODUCT_DEFINITION_SHAPE ( 'NONE', 'NONE',  #246 ) ;
#33 = EDGE_CURVE ( 'NONE', #27, #112, #141, .T. ) ;
#34 = FACE_OUTER_BOUND ( 'NONE', #148, .T. ) ;
#35 = AXIS2_PLACEMENT_3D ( 'NONE', #6, #211, #252 ) ;
#36 = CIRCLE ( 'NONE', #160, 6.000000000000000000 ) ;
#37 = CYLINDRICAL_SURFACE ( 'NONE', #14, 4.349999999999999600 ) ;
#38 = CARTESIAN_POINT ( 'NONE',  ( 0.6000000000000002000, 0.0000000000000000000, -4.349999999999998800 ) ) ;
#39 = PRESENTATION_LAYER_ASSIGNMENT (  '', '', ( #77 ) ) ;
#40 = ORIENTED_EDGE ( 'NONE', *, *, #117, .T. ) ;
#41 = DIRECTION ( 'NONE',  ( 0.0000000000000000000, 0.0000000000000000000, -1.000000000000000000 ) ) ;
#42 = ADVANCED_FACE ( 'NONE', ( #73 ), #37, .T. ) ;
#43 = MECHANICAL_DESIGN_GEOMETRIC_PRESENTATION_REPRESENTATION (  '', ( #248 ), #174 ) ;
#44 = CARTESIAN_POINT ( 'NONE',  ( 0.6000000000000002000, 5.327213576290985300E-016, -4.349999999999998800 ) ) ;
#45 = DIRECTION ( 'NONE',  ( -1.000000000000000000, -0.0000000000000000000, -0.0000000000000000000 ) ) ;
#46 = SHAPE_DEFINITION_REPRESENTATION ( #32, #194 ) ;
#47 = LINE ( 'NONE', #176, #146 ) ;
#48 = EDGE_CURVE ( 'NONE', #218, #116, #265, .T. ) ;
#49 = ORIENTED_EDGE ( 'NONE', *, *, #10, .T. ) ;
#50 = CARTESIAN_POINT ( 'NONE',  ( 0.0000000000000000000, 0.0000000000000000000, 6.000000000000000000 ) ) ;
#51 = CARTESIAN_POINT ( 'NONE',  ( 1.285879139104718800E-016, 3.750000000000000000, 0.0000000000000000000 ) ) ;
#52 = PLANE ( 'NONE',  #137 ) ;
#53 = CARTESIAN_POINT ( 'NONE',  ( 2.571758278209437500E-016, 4.959819536546779600E-016, 3.750000000000000000 ) ) ;
#54 = EDGE_CURVE ( 'NONE', #165, #82, #119, .T. ) ;
#55 = DIRECTION ( 'NONE',  ( 0.0000000000000000000, 0.0000000000000000000, 1.000000000000000000 ) ) ;
#56 = DIRECTION ( 'NONE',  ( -1.000000000000000000, -0.0000000000000000000, -0.0000000000000000000 ) ) ;
#57 = DIRECTION ( 'NONE',  ( 0.0000000000000000000, 0.0000000000000000000, 1.000000000000000000 ) ) ;
#58 = AXIS2_PLACEMENT_3D ( 'NONE', #19, #170, #254 ) ;
#59 = EDGE_LOOP ( 'NONE', ( #78, #134, #13, #251 ) ) ;
#60 = AXIS2_PLACEMENT_3D ( 'NONE', #163, #131, #55 ) ;
#61 = ORIENTED_EDGE ( 'NONE', *, *, #1, .T. ) ;
#62 = AXIS2_PLACEMENT_3D ( 'NONE', #239, #199, #110 ) ;
#63 = ADVANCED_FACE ( 'NONE', ( #255 ), #223, .T. ) ;
#64 = DIRECTION ( 'NONE',  ( 0.0000000000000000000, 0.0000000000000000000, 1.000000000000000000 ) ) ;
#65 = ORIENTED_EDGE ( 'NONE', *, *, #117, .F. ) ;
#66 = ORIENTED_EDGE ( 'NONE', *, *, #17, .T. ) ;
#67 = AXIS2_PLACEMENT_3D ( 'NONE', #234, #231, #127 ) ;
#68 = DIRECTION ( 'NONE',  ( -1.000000000000000000, -0.0000000000000000000, -0.0000000000000000000 ) ) ;
#69 = CARTESIAN_POINT ( 'NONE',  ( 8.000000000000000000, 0.0000000000000000000, 0.0000000000000000000 ) ) ;
#70 = ORIENTED_EDGE ( 'NONE', *, *, #237, .F. ) ;
#71 = CARTESIAN_POINT ( 'NONE',  ( 0.0000000000000000000, 5.327213576290986200E-016, -4.349999999999999600 ) ) ;
#72 = CARTESIAN_POINT ( 'NONE',  ( 2.571758278209437500E-016, 0.0000000000000000000, 0.0000000000000000000 ) ) ;
#73 = FACE_OUTER_BOUND ( 'NONE', #175, .T. ) ;
#74 = CARTESIAN_POINT ( 'NONE',  ( 2.571758278209437500E-016, 0.0000000000000000000, -3.750000000000000000 ) ) ;
#75 = DIRECTION ( 'NONE',  ( 0.0000000000000000000, 0.0000000000000000000, 1.000000000000000000 ) ) ;
#76 = ORIENTED_EDGE ( 'NONE', *, *, #5, .F. ) ;
#77 = STYLED_ITEM ( 'NONE', ( #108 ), #194 ) ;
#78 = ORIENTED_EDGE ( 'NONE', *, *, #33, .F. ) ;
#79 = SURFACE_SIDE_STYLE ('',( #212 ) ) ;
#80 = ORIENTED_EDGE ( 'NONE', *, *, #10, .F. ) ;
#81 = EDGE_LOOP ( 'NONE', ( #80, #76 ) ) ;
#82 = VERTEX_POINT ( 'NONE', #152 ) ;
#83 = CARTESIAN_POINT ( 'NONE',  ( 10.00000000000000000, 0.0000000000000000000, 0.0000000000000000000 ) ) ;
#84 =( GEOMETRIC_REPRESENTATION_CONTEXT ( 3 ) GLOBAL_UNCERTAINTY_ASSIGNED_CONTEXT ( ( #247 ) ) GLOBAL_UNIT_ASSIGNED_CONTEXT ( ( #11, #216, #236 ) ) REPRESENTATION_CONTEXT ( 'NONE', 'WORKASPACE' ) );
#85 = DIRECTION ( 'NONE',  ( 1.000000000000000000, 0.0000000000000000000, 0.0000000000000000000 ) ) ;
#86 = CARTESIAN_POINT ( 'NONE',  ( 0.6000000000000002000, 0.0000000000000000000, 0.0000000000000000000 ) ) ;
#87 = FACE_OUTER_BOUND ( 'NONE', #192, .T. ) ;
#88 = AXIS2_PLACEMENT_3D ( 'NONE', #4, #85, #233 ) ;
#89 = ORIENTED_EDGE ( 'NONE', *, *, #54, .F. ) ;
#90 = DIRECTION ( 'NONE',  ( -1.000000000000000000, -0.0000000000000000000, -0.0000000000000000000 ) ) ;
#91 = PRODUCT ( 'àðò. KRT620', 'àðò. KRT620', '', ( #98 ) ) ;
#92 =( LENGTH_UNIT ( ) NAMED_UNIT ( * ) SI_UNIT ( .MILLI., .METRE. ) );
#93 = CARTESIAN_POINT ( 'NONE',  ( 8.000000000000000000, 0.0000000000000000000, 4.349999999999999600 ) ) ;
#94 = AXIS2_PLACEMENT_3D ( 'NONE', #107, #25, #253 ) ;
#95 = APPLICATION_CONTEXT ( 'automotive_design' ) ;
#96 =( LENGTH_UNIT ( ) NAMED_UNIT ( * ) SI_UNIT ( .MILLI., .METRE. ) );
#97 = CIRCLE ( 'NONE', #31, 3.750000000000000000 ) ;
#98 = PRODUCT_CONTEXT ( 'NONE', #95, 'mechanical' ) ;
#99 = EDGE_CURVE ( 'NONE', #116, #18, #181, .T. ) ;
#100 = ORIENTED_EDGE ( 'NONE', *, *, #250, .T. ) ;
#101 = VECTOR ( 'NONE', #122, 1000.000000000000000 ) ;
#102 = ORIENTED_EDGE ( 'NONE', *, *, #48, .T. ) ;
#103 = MECHANICAL_DESIGN_GEOMETRIC_PRESENTATION_REPRESENTATION (  '', ( #77 ), #187 ) ;
#104 = ADVANCED_FACE ( 'NONE', ( #126 ), #203, .T. ) ;
#105 = ORIENTED_EDGE ( 'NONE', *, *, #191, .F. ) ;
#106 = AXIS2_PLACEMENT_3D ( 'NONE', #113, #12, #241 ) ;
#107 = CARTESIAN_POINT ( 'NONE',  ( 0.0000000000000000000, 0.0000000000000000000, 0.0000000000000000000 ) ) ;
#108 = PRESENTATION_STYLE_ASSIGNMENT (( #222 ) ) ;
#109 = ORIENTED_EDGE ( 'NONE', *, *, #250, .F. ) ;
#110 = DIRECTION ( 'NONE',  ( 0.0000000000000000000, 0.0000000000000000000, -1.000000000000000000 ) ) ;
#111 = DIRECTION ( 'NONE',  ( 0.0000000000000000000, 0.0000000000000000000, 1.000000000000000000 ) ) ;
#112 = VERTEX_POINT ( 'NONE', #44 ) ;
#113 = CARTESIAN_POINT ( 'NONE',  ( 0.6000000000000002000, 0.0000000000000000000, 0.0000000000000000000 ) ) ;
#114 = APPLICATION_PROTOCOL_DEFINITION ( 'draft international standard', 'automotive_design', 1998, #95 ) ;
#115 = ORIENTED_EDGE ( 'NONE', *, *, #99, .T. ) ;
#116 = VERTEX_POINT ( 'NONE', #214 ) ;
#117 = EDGE_CURVE ( 'NONE', #182, #165, #97, .T. ) ;
#118 = ORIENTED_EDGE ( 'NONE', *, *, #169, .F. ) ;
#119 = LINE ( 'NONE', #177, #157 ) ;
#120 = AXIS2_PLACEMENT_3D ( 'NONE', #83, #24, #156 ) ;
#121 = DIRECTION ( 'NONE',  ( 0.7071067811865481300, 0.0000000000000000000, -0.7071067811865470200 ) ) ;
#122 = DIRECTION ( 'NONE',  ( -1.000000000000000000, -0.0000000000000000000, -0.0000000000000000000 ) ) ;
#123 = CARTESIAN_POINT ( 'NONE',  ( 8.000000000000000000, 7.347880794884119700E-016, -6.000000000000000000 ) ) ;
#124 = FACE_BOUND ( 'NONE', #81, .T. ) ;
#125 = ADVANCED_FACE ( 'NONE', ( #173 ), #207, .T. ) ;
#126 = FACE_OUTER_BOUND ( 'NONE', #59, .T. ) ;
#127 = DIRECTION ( 'NONE',  ( 0.0000000000000000000, 0.0000000000000000000, 1.000000000000000000 ) ) ;
#128 = DIRECTION ( 'NONE',  ( 0.7071067811865481300, 8.659560562354926700E-017, 0.7071067811865470200 ) ) ;
#129 = ADVANCED_FACE ( 'NONE', ( #34 ), #158, .F. ) ;
#130 = DIRECTION ( 'NONE',  ( 0.0000000000000000000, 0.0000000000000000000, 1.000000000000000000 ) ) ;
#131 = DIRECTION ( 'NONE',  ( -1.000000000000000000, -0.0000000000000000000, -0.0000000000000000000 ) ) ;
#132 = VECTOR ( 'NONE', #30, 1000.000000000000000 ) ;
#133 = ORIENTED_EDGE ( 'NONE', *, *, #17, .F. ) ;
#134 = ORIENTED_EDGE ( 'NONE', *, *, #5, .T. ) ;
#135 = CARTESIAN_POINT ( 'NONE',  ( 0.6000000000000002000, 0.0000000000000000000, 0.0000000000000000000 ) ) ;
#136 = FILL_AREA_STYLE ('',( #261 ) ) ;
#137 = AXIS2_PLACEMENT_3D ( 'NONE', #51, #238, #138 ) ;
#138 = DIRECTION ( 'NONE',  ( 0.0000000000000000000, 0.0000000000000000000, -1.000000000000000000 ) ) ;
#139 = ORIENTED_EDGE ( 'NONE', *, *, #28, .T. ) ;
#140 = CIRCLE ( 'NONE', #106, 4.349999999999998800 ) ;
#141 = LINE ( 'NONE', #71, #101 ) ;
#142 = ORIENTED_EDGE ( 'NONE', *, *, #28, .F. ) ;
#143 = APPLICATION_PROTOCOL_DEFINITION ( 'draft international standard', 'automotive_design', 1998, #264 ) ;
#144 = SURFACE_STYLE_FILL_AREA ( #136 ) ;
#145 = COLOUR_RGB ( '',0.7921568627450980000, 0.8196078431372548800, 0.9333333333333333500 ) ;
#146 = VECTOR ( 'NONE', #193, 1000.000000000000000 ) ;
#147 = EDGE_CURVE ( 'NONE', #112, #82, #140, .T. ) ;
#148 = EDGE_LOOP ( 'NONE', ( #109, #133 ) ) ;
#149 = ADVANCED_FACE ( 'NONE', ( #87 ), #52, .F. ) ;
#150 = DIRECTION ( 'NONE',  ( 1.000000000000000000, 0.0000000000000000000, 0.0000000000000000000 ) ) ;
#151 = AXIS2_PLACEMENT_3D ( 'NONE', #135, #217, #111 ) ;
#152 = CARTESIAN_POINT ( 'NONE',  ( 0.6000000000000002000, 0.0000000000000000000, 4.349999999999998800 ) ) ;
#153 = DIRECTION ( 'NONE',  ( 0.0000000000000000000, 0.0000000000000000000, 1.000000000000000000 ) ) ;
#154 = PRODUCT_DEFINITION_CONTEXT ( 'detailed design', #264, 'design' ) ;
#155 = ADVANCED_FACE ( 'NONE', ( #124, #232 ), #259, .F. ) ;
#156 = DIRECTION ( 'NONE',  ( -0.0000000000000000000, 0.0000000000000000000, 1.000000000000000000 ) ) ;
#157 = VECTOR ( 'NONE', #128, 1000.000000000000000 ) ;
#158 = PLANE ( 'NONE',  #120 ) ;
#159 = FILL_AREA_STYLE_COLOUR ( '', #183 ) ;
#160 = AXIS2_PLACEMENT_3D ( 'NONE', #164, #56, #75 ) ;
#161 =( NAMED_UNIT ( * ) PLANE_ANGLE_UNIT ( ) SI_UNIT ( $, .RADIAN. ) );
#162 = ORIENTED_EDGE ( 'NONE', *, *, #147, .T. ) ;
#163 = CARTESIAN_POINT ( 'NONE',  ( 10.00000000000000000, 0.0000000000000000000, 0.0000000000000000000 ) ) ;
#164 = CARTESIAN_POINT ( 'NONE',  ( 8.000000000000000000, 0.0000000000000000000, 0.0000000000000000000 ) ) ;
#165 = VERTEX_POINT ( 'NONE', #53 ) ;
#166 = ORIENTED_EDGE ( 'NONE', *, *, #1, .F. ) ;
#167 = AXIS2_PLACEMENT_3D ( 'NONE', #86, #150, #41 ) ;
#168 = EDGE_LOOP ( 'NONE', ( #115, #240 ) ) ;
#169 = EDGE_CURVE ( 'NONE', #82, #112, #244, .T. ) ;
#170 = DIRECTION ( 'NONE',  ( -1.000000000000000000, -0.0000000000000000000, -0.0000000000000000000 ) ) ;
#171 = CIRCLE ( 'NONE', #58, 4.349999999999999600 ) ;
#172 = CARTESIAN_POINT ( 'NONE',  ( 0.0000000000000000000, 0.0000000000000000000, 0.0000000000000000000 ) ) ;
#173 = FACE_OUTER_BOUND ( 'NONE', #249, .T. ) ;
#174 =( GEOMETRIC_REPRESENTATION_CONTEXT ( 3 ) GLOBAL_UNCERTAINTY_ASSIGNED_CONTEXT ( ( #225 ) ) GLOBAL_UNIT_ASSIGNED_CONTEXT ( ( #92, #161, #29 ) ) REPRESENTATION_CONTEXT ( 'NONE', 'WORKASPACE' ) );
#175 = EDGE_LOOP ( 'NONE', ( #49, #221, #118, #204 ) ) ;
#176 = CARTESIAN_POINT ( 'NONE',  ( 0.0000000000000000000, 7.347880794884119700E-016, -6.000000000000000000 ) ) ;
#177 = CARTESIAN_POINT ( 'NONE',  ( 0.6000000000000002000, 5.327213576290985300E-016, 4.349999999999998800 ) ) ;
#178 = CYLINDRICAL_SURFACE ( 'NONE', #263, 6.000000000000000000 ) ;
#179 = ORIENTED_EDGE ( 'NONE', *, *, #169, .T. ) ;
#180 = CARTESIAN_POINT ( 'NONE',  ( 2.571758278209437500E-016, 0.0000000000000000000, 0.0000000000000000000 ) ) ;
#181 = CIRCLE ( 'NONE', #230, 6.000000000000000000 ) ;
#182 = VERTEX_POINT ( 'NONE', #74 ) ;
#183 = COLOUR_RGB ( '',0.7921568627450980000, 0.8196078431372548800, 0.9333333333333333500 ) ;
#184 = EDGE_LOOP ( 'NONE', ( #105, #256, #179, #166 ) ) ;
#185 =( NAMED_UNIT ( * ) PLANE_ANGLE_UNIT ( ) SI_UNIT ( $, .RADIAN. ) );
#186 = VECTOR ( 'NONE', #121, 1000.000000000000000 ) ;
#187 =( GEOMETRIC_REPRESENTATION_CONTEXT ( 3 ) GLOBAL_UNCERTAINTY_ASSIGNED_CONTEXT ( ( #206 ) ) GLOBAL_UNIT_ASSIGNED_CONTEXT ( ( #96, #185, #267 ) ) REPRESENTATION_CONTEXT ( 'NONE', 'WORKASPACE' ) );
#188 = FACE_OUTER_BOUND ( 'NONE', #195, .T. ) ;
#189 = CIRCLE ( 'NONE', #35, 4.349999999999999600 ) ;
#190 = LINE ( 'NONE', #257, #132 ) ;
#191 = EDGE_CURVE ( 'NONE', #165, #182, #21, .T. ) ;
#192 = EDGE_LOOP ( 'NONE', ( #40, #245 ) ) ;
#193 = DIRECTION ( 'NONE',  ( -1.000000000000000000, -0.0000000000000000000, -0.0000000000000000000 ) ) ;
#194 = ADVANCED_BREP_SHAPE_REPRESENTATION ( 'ð¨ª. KRT620', ( #242, #215 ), #84 ) ;
#195 = EDGE_LOOP ( 'NONE', ( #100, #139, #269, #270 ) ) ;
#196 = CARTESIAN_POINT ( 'NONE',  ( 0.0000000000000000000, 0.0000000000000000000, 0.0000000000000000000 ) ) ;
#197 = DIRECTION ( 'NONE',  ( 0.0000000000000000000, 0.0000000000000000000, 1.000000000000000000 ) ) ;
#198 = PRODUCT_RELATED_PRODUCT_CATEGORY ( 'part', '', ( #91 ) ) ;
#199 = DIRECTION ( 'NONE',  ( 1.000000000000000000, 0.0000000000000000000, 0.0000000000000000000 ) ) ;
#200 = CIRCLE ( 'NONE', #60, 6.000000000000000000 ) ;
#201 = EDGE_LOOP ( 'NONE', ( #142, #66, #102, #70 ) ) ;
#202 = DIRECTION ( 'NONE',  ( -1.000000000000000000, -0.0000000000000000000, -0.0000000000000000000 ) ) ;
#203 = CYLINDRICAL_SURFACE ( 'NONE', #94, 4.349999999999999600 ) ;
#204 = ORIENTED_EDGE ( 'NONE', *, *, #268, .F. ) ;
#205 = PRESENTATION_LAYER_ASSIGNMENT (  '', '', ( #248 ) ) ;
#206 = UNCERTAINTY_MEASURE_WITH_UNIT (LENGTH_MEASURE( 1.000000000000000100E-005 ), #96, 'distance_accuracy_value', 'NONE');
#207 = CONICAL_SURFACE ( 'NONE', #167, 4.349999999999998800, 0.7853981633974475000 ) ;
#208 = AXIS2_PLACEMENT_3D ( 'NONE', #72, #202, #220 ) ;
#209 = CLOSED_SHELL ( 'NONE', ( #63, #42, #210, #149, #129, #3, #155, #104, #125 ) ) ;
#210 = ADVANCED_FACE ( 'NONE', ( #188 ), #178, .T. ) ;
#211 = DIRECTION ( 'NONE',  ( -1.000000000000000000, -0.0000000000000000000, -0.0000000000000000000 ) ) ;
#212 = SURFACE_STYLE_FILL_AREA ( #266 ) ;
#213 = DIRECTION ( 'NONE',  ( 0.0000000000000000000, 0.0000000000000000000, 1.000000000000000000 ) ) ;
#214 = CARTESIAN_POINT ( 'NONE',  ( 8.000000000000000000, 0.0000000000000000000, 6.000000000000000000 ) ) ;
#215 = AXIS2_PLACEMENT_3D ( 'NONE', #196, #57, #243 ) ;
#216 =( NAMED_UNIT ( * ) PLANE_ANGLE_UNIT ( ) SI_UNIT ( $, .RADIAN. ) );
#217 = DIRECTION ( 'NONE',  ( -1.000000000000000000, -0.0000000000000000000, -0.0000000000000000000 ) ) ;
#218 = VERTEX_POINT ( 'NONE', #219 ) ;
#219 = CARTESIAN_POINT ( 'NONE',  ( 10.00000000000000000, 0.0000000000000000000, 6.000000000000000000 ) ) ;
#220 = DIRECTION ( 'NONE',  ( 0.0000000000000000000, 0.0000000000000000000, 1.000000000000000000 ) ) ;
#221 = ORIENTED_EDGE ( 'NONE', *, *, #33, .T. ) ;
#222 = SURFACE_STYLE_USAGE ( .BOTH. , #79 ) ;
#223 = CONICAL_SURFACE ( 'NONE', #88, 4.349999999999998800, 0.7853981633974475000 ) ;
#224 = VERTEX_POINT ( 'NONE', #93 ) ;
#225 = UNCERTAINTY_MEASURE_WITH_UNIT (LENGTH_MEASURE( 1.000000000000000100E-005 ), #92, 'distance_accuracy_value', 'NONE');
#226 = DIRECTION ( 'NONE',  ( -1.000000000000000000, -0.0000000000000000000, -0.0000000000000000000 ) ) ;
#227 = FACE_OUTER_BOUND ( 'NONE', #201, .T. ) ;
#228 = CARTESIAN_POINT ( 'NONE',  ( 10.00000000000000000, 7.347880794884119700E-016, -6.000000000000000000 ) ) ;
#229 = DIRECTION ( 'NONE',  ( -1.000000000000000000, -0.0000000000000000000, -0.0000000000000000000 ) ) ;
#230 = AXIS2_PLACEMENT_3D ( 'NONE', #69, #90, #130 ) ;
#231 = DIRECTION ( 'NONE',  ( -1.000000000000000000, -0.0000000000000000000, -0.0000000000000000000 ) ) ;
#232 = FACE_OUTER_BOUND ( 'NONE', #168, .T. ) ;
#233 = DIRECTION ( 'NONE',  ( 0.0000000000000000000, 0.0000000000000000000, -1.000000000000000000 ) ) ;
#234 = CARTESIAN_POINT ( 'NONE',  ( 10.00000000000000000, 0.0000000000000000000, 0.0000000000000000000 ) ) ;
#235 = VECTOR ( 'NONE', #68, 1000.000000000000000 ) ;
#236 =( NAMED_UNIT ( * ) SI_UNIT ( $, .STERADIAN. ) SOLID_ANGLE_UNIT ( ) );
#237 = EDGE_CURVE ( 'NONE', #18, #116, #36, .T. ) ;
#238 = DIRECTION ( 'NONE',  ( 1.000000000000000000, 0.0000000000000000000, 0.0000000000000000000 ) ) ;
#239 = CARTESIAN_POINT ( 'NONE',  ( 8.000000000000000000, 6.000000000000000000, 0.0000000000000000000 ) ) ;
#240 = ORIENTED_EDGE ( 'NONE', *, *, #237, .T. ) ;
#241 = DIRECTION ( 'NONE',  ( 0.0000000000000000000, 0.0000000000000000000, 1.000000000000000000 ) ) ;
#242 = MANIFOLD_SOLID_BREP ( 'Ïîâåðíóòü1', #209 ) ;
#243 = DIRECTION ( 'NONE',  ( 1.000000000000000000, 0.0000000000000000000, 0.0000000000000000000 ) ) ;
#244 = CIRCLE ( 'NONE', #151, 4.349999999999998800 ) ;
#245 = ORIENTED_EDGE ( 'NONE', *, *, #191, .T. ) ;
#246 = PRODUCT_DEFINITION ( 'UNKNOWN', '', #258, #154 ) ;
#247 = UNCERTAINTY_MEASURE_WITH_UNIT (LENGTH_MEASURE( 1.000000000000000100E-005 ), #11, 'distance_accuracy_value', 'NONE');
#248 = STYLED_ITEM ( 'NONE', ( #16 ), #242 ) ;
#249 = EDGE_LOOP ( 'NONE', ( #89, #65, #61, #162 ) ) ;
#250 = EDGE_CURVE ( 'NONE', #218, #15, #200, .T. ) ;
#251 = ORIENTED_EDGE ( 'NONE', *, *, #147, .F. ) ;
#252 = DIRECTION ( 'NONE',  ( 0.0000000000000000000, 0.0000000000000000000, 1.000000000000000000 ) ) ;
#253 = DIRECTION ( 'NONE',  ( 0.0000000000000000000, 0.0000000000000000000, 1.000000000000000000 ) ) ;
#254 = DIRECTION ( 'NONE',  ( 0.0000000000000000000, 0.0000000000000000000, 1.000000000000000000 ) ) ;
#255 = FACE_OUTER_BOUND ( 'NONE', #184, .T. ) ;
#256 = ORIENTED_EDGE ( 'NONE', *, *, #54, .T. ) ;
#257 = CARTESIAN_POINT ( 'NONE',  ( 0.0000000000000000000, 0.0000000000000000000, 4.349999999999999600 ) ) ;
#258 = PRODUCT_DEFINITION_FORMATION_WITH_SPECIFIED_SOURCE ( 'ANY', '', #91, .NOT_KNOWN. ) ;
#259 = PLANE ( 'NONE',  #62 ) ;
#260 = SURFACE_SIDE_STYLE ('',( #144 ) ) ;
#261 = FILL_AREA_STYLE_COLOUR ( '', #145 ) ;
#262 = DIRECTION ( 'NONE',  ( -1.000000000000000000, -0.0000000000000000000, -0.0000000000000000000 ) ) ;
#263 = AXIS2_PLACEMENT_3D ( 'NONE', #8, #262, #197 ) ;
#264 = APPLICATION_CONTEXT ( 'automotive_design' ) ;
#265 = LINE ( 'NONE', #50, #235 ) ;
#266 = FILL_AREA_STYLE ('',( #159 ) ) ;
#267 =( NAMED_UNIT ( * ) SI_UNIT ( $, .STERADIAN. ) SOLID_ANGLE_UNIT ( ) );
#268 = EDGE_CURVE ( 'NONE', #224, #82, #190, .T. ) ;
#269 = ORIENTED_EDGE ( 'NONE', *, *, #99, .F. ) ;
#270 = ORIENTED_EDGE ( 'NONE', *, *, #48, .F. ) ;
ENDSEC;
END-ISO-10303-21;
