ISO-10303-21;
HEADER;
FILE_DESCRIPTION(('STEP AP214'),
    '1');
FILE_NAME('àðò. KRT742',
    '2014-09-30T09:18:06',
    ('ba2ra'),
    ('3ds'),
    'ASCON STEP Converter 1.3',
    'ASCON Math Kernel',
    '');
FILE_SCHEMA(('AUTOMOTIVE_DESIGN { 1 0 10303 214 3 1 1}'));
ENDSEC;

DATA;
#1=SHAPE_REPRESENTATION('NONE',(#2),#6);
#2=AXIS2_PLACEMENT_3D('',#3,#4,#5);
#3=CARTESIAN_POINT('',(0.,0.,0.));
#4=DIRECTION('',(0.,0.,1.));
#5=DIRECTION('',(1.,0.,0.));
#6=(GEOMETRIC_REPRESENTATION_CONTEXT(3)GLOBAL_UNCERTAINTY_ASSIGNED_CONTEXT((#8))
GLOBAL_UNIT_ASSIGNED_CONTEXT((#7,#9,#10))REPRESENTATION_CONTEXT('NONE','NONE'));
#7=(LENGTH_UNIT()NAMED_UNIT(*)SI_UNIT(.MILLI.,.METRE.));
#8=UNCERTAINTY_MEASURE_WITH_UNIT(LENGTH_MEASURE(1.E-005),#7,'NONE','NONE');
#9=(NAMED_UNIT(*)PLANE_ANGLE_UNIT()SI_UNIT($,.RADIAN.));
#10=(NAMED_UNIT(*)SI_UNIT($,.STERADIAN.)SOLID_ANGLE_UNIT());
#11=SHAPE_DEFINITION_REPRESENTATION(#12,#1);
#12=PRODUCT_DEFINITION_SHAPE('NONE','NONE',#13);
#13=PRODUCT_DEFINITION('','UNSPECIFIED',#14,#22);
#14=PRODUCT_DEFINITION_FORMATION_WITH_SPECIFIED_SOURCE('ANY','UNSPECIFIED',#15,.NOT_KNOWN.);
#15=PRODUCT('àðò.KRT742','Ñîåäèíèòåëü çàãëóøåê  ïëàñòèêîâîãî ïîðó÷íÿ','NONE',(#25));
#16=PERSON('UNSPECIFIED','ba2ra','UNSPECIFIED',('UNSPECIFIED'),('UNSPECIFIED'),(
'UNSPECIFIED'));
#17=ORGANIZATION('UNSPECIFIED','3ds','UNSPECIFIED');
#18=PERSON_AND_ORGANIZATION(#16,#17);
#19=PERSON_AND_ORGANIZATION_ROLE('design_owner');
#20=CC_DESIGN_PERSON_AND_ORGANIZATION_ASSIGNMENT(#18,#19,(#15));
#21=PRODUCT_RELATED_PRODUCT_CATEGORY('detail','',(#15));
#22=DESIGN_CONTEXT('detailed design',#23,'design');
#23=APPLICATION_CONTEXT('configuration controlled 3d designs of mechanical parts and assemblies');
#24=APPLICATION_PROTOCOL_DEFINITION('international standard','automotive_design',
2011,#23);
#25=MECHANICAL_CONTEXT('NONE',#23,'mechanical');
#26=CC_DESIGN_DATE_AND_TIME_ASSIGNMENT(#27,#31,(#13));
#27=DATE_AND_TIME(#28,#29);
#28=CALENDAR_DATE(0,1,1);
#29=LOCAL_TIME(0,0,0.,#30);
#30=COORDINATED_UNIVERSAL_TIME_OFFSET(0,0,.AHEAD.);
#31=DATE_TIME_ROLE('creation_date');
#32=CC_DESIGN_APPROVAL(#33,(#13));
#33=APPROVAL(#34,'UNSPECIFIED');
#34=APPROVAL_STATUS('not_yet_approved');
#35=APPROVAL_DATE_TIME(#36,#33);
#36=DATE_AND_TIME(#37,#38);
#37=CALENDAR_DATE(0,1,1);
#38=LOCAL_TIME(0,0,0.,#39);
#39=COORDINATED_UNIVERSAL_TIME_OFFSET(0,0,.AHEAD.);
#40=DERIVED_UNIT((#44,#41));
#41=DERIVED_UNIT_ELEMENT(#42,-1.);
#42=VOLUME_UNIT(#43);
#43=DIMENSIONAL_EXPONENTS(3.,0.,0.,0.,0.,0.,0.);
#44=(NAMED_UNIT($)MASS_UNIT()SI_UNIT($,.GRAM.));
#45=MANIFOLD_SOLID_BREP('',#46);
#46=CLOSED_SHELL('',(#58,#67,#76,#85,#94,#103,#112,#121,#130,#139,#148));
#47=COLOUR_RGB($,0.564705882352941,0.564705882352941,0.564705882352941);
#48=FILL_AREA_STYLE_COLOUR($,#47);
#49=FILL_AREA_STYLE($,(#48));
#50=SURFACE_STYLE_FILL_AREA(#49);
#51=SURFACE_SIDE_STYLE('',(#50));
#52=SURFACE_STYLE_USAGE(.BOTH.,#51);
#53=PRESENTATION_STYLE_ASSIGNMENT((#52));
#54=MECHANICAL_DESIGN_GEOMETRIC_PRESENTATION_REPRESENTATION('NONE',(#55,#66,#75,
#84,#93,#102,#111,#120,#129,#138,#147,#156),#6);
#55=STYLED_ITEM('',(#53),#45);
#56=ADVANCED_BREP_SHAPE_REPRESENTATION('NONE',(#45),#6);
#57=SHAPE_REPRESENTATION_RELATIONSHIP('','',#1,#56);
#58=ADVANCED_FACE('',(#157),#159,.T.);
#59=COLOUR_RGB($,0.564705882352941,0.564705882352941,0.564705882352941);
#60=FILL_AREA_STYLE_COLOUR($,#59);
#61=FILL_AREA_STYLE($,(#60));
#62=SURFACE_STYLE_FILL_AREA(#61);
#63=SURFACE_SIDE_STYLE('',(#62));
#64=SURFACE_STYLE_USAGE(.BOTH.,#63);
#65=PRESENTATION_STYLE_ASSIGNMENT((#64));
#66=STYLED_ITEM('',(#65),#58);
#67=ADVANCED_FACE('',(#164,#166),#168,.T.);
#68=COLOUR_RGB($,0.564705882352941,0.564705882352941,0.564705882352941);
#69=FILL_AREA_STYLE_COLOUR($,#68);
#70=FILL_AREA_STYLE($,(#69));
#71=SURFACE_STYLE_FILL_AREA(#70);
#72=SURFACE_SIDE_STYLE('',(#71));
#73=SURFACE_STYLE_USAGE(.BOTH.,#72);
#74=PRESENTATION_STYLE_ASSIGNMENT((#73));
#75=STYLED_ITEM('',(#74),#67);
#76=ADVANCED_FACE('',(#173,#175),#177,.T.);
#77=COLOUR_RGB($,0.564705882352941,0.564705882352941,0.564705882352941);
#78=FILL_AREA_STYLE_COLOUR($,#77);
#79=FILL_AREA_STYLE($,(#78));
#80=SURFACE_STYLE_FILL_AREA(#79);
#81=SURFACE_SIDE_STYLE('',(#80));
#82=SURFACE_STYLE_USAGE(.BOTH.,#81);
#83=PRESENTATION_STYLE_ASSIGNMENT((#82));
#84=STYLED_ITEM('',(#83),#76);
#85=ADVANCED_FACE('',(#182,#184),#186,.T.);
#86=COLOUR_RGB($,0.564705882352941,0.564705882352941,0.564705882352941);
#87=FILL_AREA_STYLE_COLOUR($,#86);
#88=FILL_AREA_STYLE($,(#87));
#89=SURFACE_STYLE_FILL_AREA(#88);
#90=SURFACE_SIDE_STYLE('',(#89));
#91=SURFACE_STYLE_USAGE(.BOTH.,#90);
#92=PRESENTATION_STYLE_ASSIGNMENT((#91));
#93=STYLED_ITEM('',(#92),#85);
#94=ADVANCED_FACE('',(#191,#193),#195,.T.);
#95=COLOUR_RGB($,0.564705882352941,0.564705882352941,0.564705882352941);
#96=FILL_AREA_STYLE_COLOUR($,#95);
#97=FILL_AREA_STYLE($,(#96));
#98=SURFACE_STYLE_FILL_AREA(#97);
#99=SURFACE_SIDE_STYLE('',(#98));
#100=SURFACE_STYLE_USAGE(.BOTH.,#99);
#101=PRESENTATION_STYLE_ASSIGNMENT((#100));
#102=STYLED_ITEM('',(#101),#94);
#103=ADVANCED_FACE('',(#200,#202),#204,.T.);
#104=COLOUR_RGB($,0.564705882352941,0.564705882352941,0.564705882352941);
#105=FILL_AREA_STYLE_COLOUR($,#104);
#106=FILL_AREA_STYLE($,(#105));
#107=SURFACE_STYLE_FILL_AREA(#106);
#108=SURFACE_SIDE_STYLE('',(#107));
#109=SURFACE_STYLE_USAGE(.BOTH.,#108);
#110=PRESENTATION_STYLE_ASSIGNMENT((#109));
#111=STYLED_ITEM('',(#110),#103);
#112=ADVANCED_FACE('',(#209,#211),#213,.T.);
#113=COLOUR_RGB($,0.564705882352941,0.564705882352941,0.564705882352941);
#114=FILL_AREA_STYLE_COLOUR($,#113);
#115=FILL_AREA_STYLE($,(#114));
#116=SURFACE_STYLE_FILL_AREA(#115);
#117=SURFACE_SIDE_STYLE('',(#116));
#118=SURFACE_STYLE_USAGE(.BOTH.,#117);
#119=PRESENTATION_STYLE_ASSIGNMENT((#118));
#120=STYLED_ITEM('',(#119),#112);
#121=ADVANCED_FACE('',(#218,#220),#222,.T.);
#122=COLOUR_RGB($,0.564705882352941,0.564705882352941,0.564705882352941);
#123=FILL_AREA_STYLE_COLOUR($,#122);
#124=FILL_AREA_STYLE($,(#123));
#125=SURFACE_STYLE_FILL_AREA(#124);
#126=SURFACE_SIDE_STYLE('',(#125));
#127=SURFACE_STYLE_USAGE(.BOTH.,#126);
#128=PRESENTATION_STYLE_ASSIGNMENT((#127));
#129=STYLED_ITEM('',(#128),#121);
#130=ADVANCED_FACE('',(#227,#229),#231,.T.);
#131=COLOUR_RGB($,0.564705882352941,0.564705882352941,0.564705882352941);
#132=FILL_AREA_STYLE_COLOUR($,#131);
#133=FILL_AREA_STYLE($,(#132));
#134=SURFACE_STYLE_FILL_AREA(#133);
#135=SURFACE_SIDE_STYLE('',(#134));
#136=SURFACE_STYLE_USAGE(.BOTH.,#135);
#137=PRESENTATION_STYLE_ASSIGNMENT((#136));
#138=STYLED_ITEM('',(#137),#130);
#139=ADVANCED_FACE('',(#236),#238,.F.);
#140=COLOUR_RGB($,0.564705882352941,0.564705882352941,0.564705882352941);
#141=FILL_AREA_STYLE_COLOUR($,#140);
#142=FILL_AREA_STYLE($,(#141));
#143=SURFACE_STYLE_FILL_AREA(#142);
#144=SURFACE_SIDE_STYLE('',(#143));
#145=SURFACE_STYLE_USAGE(.BOTH.,#144);
#146=PRESENTATION_STYLE_ASSIGNMENT((#145));
#147=STYLED_ITEM('',(#146),#139);
#148=ADVANCED_FACE('',(#243,#245),#247,.T.);
#149=COLOUR_RGB($,0.564705882352941,0.564705882352941,0.564705882352941);
#150=FILL_AREA_STYLE_COLOUR($,#149);
#151=FILL_AREA_STYLE($,(#150));
#152=SURFACE_STYLE_FILL_AREA(#151);
#153=SURFACE_SIDE_STYLE('',(#152));
#154=SURFACE_STYLE_USAGE(.BOTH.,#153);
#155=PRESENTATION_STYLE_ASSIGNMENT((#154));
#156=STYLED_ITEM('',(#155),#148);
#157=FACE_BOUND('',#158,.T.);
#158=EDGE_LOOP('',(#252));
#159=PLANE('',#160);
#160=AXIS2_PLACEMENT_3D('',#161,#162,#163);
#161=CARTESIAN_POINT('',(-1.97215226305253E-031,0.,66.));
#162=DIRECTION('',(-6.12303176911189E-017,0.,1.));
#163=DIRECTION('',(1.,0.,6.12303176911189E-017));
#164=FACE_OUTER_BOUND('',#165,.T.);
#165=EDGE_LOOP('',(#253));
#166=FACE_OUTER_BOUND('',#167,.T.);
#167=EDGE_LOOP('',(#254));
#168=CYLINDRICAL_SURFACE('',#169,5.);
#169=AXIS2_PLACEMENT_3D('',#170,#171,#172);
#170=CARTESIAN_POINT('',(-1.97215226305253E-031,0.,15.));
#171=DIRECTION('',(0.,0.,1.));
#172=DIRECTION('',(1.,0.,0.));
#173=FACE_OUTER_BOUND('',#174,.T.);
#174=EDGE_LOOP('',(#255));
#175=FACE_OUTER_BOUND('',#176,.T.);
#176=EDGE_LOOP('',(#256));
#177=CYLINDRICAL_SURFACE('',#178,3.);
#178=AXIS2_PLACEMENT_3D('',#179,#180,#181);
#179=CARTESIAN_POINT('',(9.18454765366783E-016,0.,51.));
#180=DIRECTION('',(-6.12303176911189E-017,0.,1.));
#181=DIRECTION('',(1.,0.,6.12303176911189E-017));
#182=FACE_BOUND('',#183,.T.);
#183=EDGE_LOOP('',(#257));
#184=FACE_BOUND('',#185,.T.);
#185=EDGE_LOOP('',(#258));
#186=PLANE('',#187);
#187=AXIS2_PLACEMENT_3D('',#188,#189,#190);
#188=CARTESIAN_POINT('',(9.18454765366783E-016,0.,51.));
#189=DIRECTION('',(-6.12303176911189E-017,0.,1.));
#190=DIRECTION('',(1.,0.,6.12303176911189E-017));
#191=FACE_OUTER_BOUND('',#192,.T.);
#192=EDGE_LOOP('',(#259));
#193=FACE_OUTER_BOUND('',#194,.T.);
#194=EDGE_LOOP('',(#260));
#195=TOROIDAL_SURFACE('',#196,15.,5.);
#196=AXIS2_PLACEMENT_3D('',#197,#198,#199);
#197=CARTESIAN_POINT('',(15.,0.,15.));
#198=DIRECTION('',(0.,1.,0.));
#199=DIRECTION('',(0.,0.,-1.));
#200=FACE_OUTER_BOUND('',#201,.T.);
#201=EDGE_LOOP('',(#261));
#202=FACE_OUTER_BOUND('',#203,.T.);
#203=EDGE_LOOP('',(#262));
#204=CYLINDRICAL_SURFACE('',#205,5.);
#205=AXIS2_PLACEMENT_3D('',#206,#207,#208);
#206=CARTESIAN_POINT('',(66.,0.,0.));
#207=DIRECTION('',(-1.,0.,0.));
#208=DIRECTION('',(0.,0.,1.));
#209=FACE_BOUND('',#210,.T.);
#210=EDGE_LOOP('',(#263));
#211=FACE_BOUND('',#212,.T.);
#212=EDGE_LOOP('',(#264));
#213=PLANE('',#214);
#214=AXIS2_PLACEMENT_3D('',#215,#216,#217);
#215=CARTESIAN_POINT('',(51.,0.,0.));
#216=DIRECTION('',(1.,0.,-0.));
#217=DIRECTION('',(0.,0.,1.));
#218=FACE_OUTER_BOUND('',#219,.T.);
#219=EDGE_LOOP('',(#265));
#220=FACE_OUTER_BOUND('',#221,.T.);
#221=EDGE_LOOP('',(#266));
#222=CYLINDRICAL_SURFACE('',#223,3.);
#223=AXIS2_PLACEMENT_3D('',#224,#225,#226);
#224=CARTESIAN_POINT('',(51.,0.,0.));
#225=DIRECTION('',(1.,0.,0.));
#226=DIRECTION('',(0.,0.,1.));
#227=FACE_OUTER_BOUND('',#228,.T.);
#228=EDGE_LOOP('',(#267));
#229=FACE_OUTER_BOUND('',#230,.T.);
#230=EDGE_LOOP('',(#268));
#231=CONICAL_SURFACE('',#232,2.2,0.78539816339745);
#232=AXIS2_PLACEMENT_3D('',#233,#234,#235);
#233=CARTESIAN_POINT('',(65.2,0.,0.));
#234=DIRECTION('',(-1.,0.,-0.));
#235=DIRECTION('',(-0.,-0.,-1.));
#236=FACE_BOUND('',#237,.T.);
#237=EDGE_LOOP('',(#269));
#238=PLANE('',#239);
#239=AXIS2_PLACEMENT_3D('',#240,#241,#242);
#240=CARTESIAN_POINT('',(66.,0.,0.));
#241=DIRECTION('',(-1.,0.,0.));
#242=DIRECTION('',(0.,0.,1.));
#243=FACE_OUTER_BOUND('',#244,.T.);
#244=EDGE_LOOP('',(#270));
#245=FACE_OUTER_BOUND('',#246,.T.);
#246=EDGE_LOOP('',(#271));
#247=CONICAL_SURFACE('',#248,2.2,0.78539816339745);
#248=AXIS2_PLACEMENT_3D('',#249,#250,#251);
#249=CARTESIAN_POINT('',(4.89842541528947E-017,0.,65.2));
#250=DIRECTION('',(6.12303176911189E-017,-0.,-1.));
#251=DIRECTION('',(-1.,-0.,-6.12303176911189E-017));
#252=ORIENTED_EDGE('',*,*,#272,.T.);
#253=ORIENTED_EDGE('',*,*,#273,.T.);
#254=ORIENTED_EDGE('',*,*,#274,.T.);
#255=ORIENTED_EDGE('',*,*,#275,.F.);
#256=ORIENTED_EDGE('',*,*,#276,.T.);
#257=ORIENTED_EDGE('',*,*,#273,.F.);
#258=ORIENTED_EDGE('',*,*,#276,.F.);
#259=ORIENTED_EDGE('',*,*,#277,.T.);
#260=ORIENTED_EDGE('',*,*,#274,.F.);
#261=ORIENTED_EDGE('',*,*,#278,.T.);
#262=ORIENTED_EDGE('',*,*,#277,.F.);
#263=ORIENTED_EDGE('',*,*,#278,.F.);
#264=ORIENTED_EDGE('',*,*,#279,.F.);
#265=ORIENTED_EDGE('',*,*,#280,.F.);
#266=ORIENTED_EDGE('',*,*,#279,.T.);
#267=ORIENTED_EDGE('',*,*,#281,.F.);
#268=ORIENTED_EDGE('',*,*,#280,.T.);
#269=ORIENTED_EDGE('',*,*,#281,.T.);
#270=ORIENTED_EDGE('',*,*,#275,.T.);
#271=ORIENTED_EDGE('',*,*,#272,.F.);
#272=EDGE_CURVE('',#282,#282,#283,.T.);
#273=EDGE_CURVE('',#284,#284,#285,.F.);
#274=EDGE_CURVE('',#286,#286,#287,.T.);
#275=EDGE_CURVE('',#288,#288,#289,.T.);
#276=EDGE_CURVE('',#290,#290,#291,.T.);
#277=EDGE_CURVE('',#292,#292,#293,.T.);
#278=EDGE_CURVE('',#294,#294,#295,.T.);
#279=EDGE_CURVE('',#296,#296,#297,.T.);
#280=EDGE_CURVE('',#298,#298,#299,.T.);
#281=EDGE_CURVE('',#300,#300,#301,.T.);
#282=VERTEX_POINT('',#302);
#283=CIRCLE('',#303,1.4);
#284=VERTEX_POINT('',#307);
#285=CIRCLE('',#308,5.);
#286=VERTEX_POINT('',#312);
#287=CIRCLE('',#313,5.);
#288=VERTEX_POINT('',#317);
#289=CIRCLE('',#318,3.);
#290=VERTEX_POINT('',#322);
#291=CIRCLE('',#323,3.);
#292=VERTEX_POINT('',#327);
#293=CIRCLE('',#328,5.);
#294=VERTEX_POINT('',#332);
#295=CIRCLE('',#333,5.);
#296=VERTEX_POINT('',#337);
#297=CIRCLE('',#338,3.);
#298=VERTEX_POINT('',#342);
#299=CIRCLE('',#343,3.);
#300=VERTEX_POINT('',#347);
#301=CIRCLE('',#348,1.4);
#302=CARTESIAN_POINT('',(1.4,-1.71444889535133E-016,66.));
#303=AXIS2_PLACEMENT_3D('',#304,#305,#306);
#304=CARTESIAN_POINT('',(9.18454765366783E-016,0.,66.));
#305=DIRECTION('',(-6.12303176911189E-017,0.,1.));
#306=DIRECTION('',(1.,0.,6.12303176911189E-017));
#307=CARTESIAN_POINT('',(5.,-6.12303176911189E-016,51.));
#308=AXIS2_PLACEMENT_3D('',#309,#310,#311);
#309=CARTESIAN_POINT('',(-1.97215226305253E-031,0.,51.));
#310=DIRECTION('',(-6.12303176911189E-017,0.,1.));
#311=DIRECTION('',(1.,0.,6.12303176911189E-017));
#312=CARTESIAN_POINT('',(5.,0.,15.));
#313=AXIS2_PLACEMENT_3D('',#314,#315,#316);
#314=CARTESIAN_POINT('',(0.,0.,15.));
#315=DIRECTION('',(-6.12323399573677E-017,-0.,1.));
#316=DIRECTION('',(1.,1.22464679914735E-016,6.12323399573677E-017));
#317=CARTESIAN_POINT('',(3.,-3.67381906146713E-016,64.4));
#318=AXIS2_PLACEMENT_3D('',#319,#320,#321);
#319=CARTESIAN_POINT('',(9.79685083057896E-017,0.,64.4));
#320=DIRECTION('',(-6.12303176911189E-017,0.,1.));
#321=DIRECTION('',(1.,0.,6.12303176911189E-017));
#322=CARTESIAN_POINT('',(3.,0.,51.));
#323=AXIS2_PLACEMENT_3D('',#324,#325,#326);
#324=CARTESIAN_POINT('',(9.18454765366783E-016,0.,51.));
#325=DIRECTION('',(-6.12303176911189E-017,0.,1.));
#326=DIRECTION('',(1.,0.,6.12303176911189E-017));
#327=CARTESIAN_POINT('',(15.,6.12303176911189E-016,5.));
#328=AXIS2_PLACEMENT_3D('',#329,#330,#331);
#329=CARTESIAN_POINT('',(15.,0.,0.));
#330=DIRECTION('',(-1.,0.,0.));
#331=DIRECTION('',(0.,0.,1.));
#332=CARTESIAN_POINT('',(51.,-6.12303176911189E-016,5.));
#333=AXIS2_PLACEMENT_3D('',#334,#335,#336);
#334=CARTESIAN_POINT('',(51.,0.,0.));
#335=DIRECTION('',(-1.,-0.,0.));
#336=DIRECTION('',(0.,0.,1.));
#337=CARTESIAN_POINT('',(51.,0.,3.));
#338=AXIS2_PLACEMENT_3D('',#339,#340,#341);
#339=CARTESIAN_POINT('',(51.,0.,0.));
#340=DIRECTION('',(1.,0.,-0.));
#341=DIRECTION('',(0.,0.,1.));
#342=CARTESIAN_POINT('',(64.4,3.67381906146713E-016,3.));
#343=AXIS2_PLACEMENT_3D('',#344,#345,#346);
#344=CARTESIAN_POINT('',(64.4,0.,0.));
#345=DIRECTION('',(1.,0.,-0.));
#346=DIRECTION('',(0.,0.,1.));
#347=CARTESIAN_POINT('',(66.,1.71444889535133E-016,1.4));
#348=AXIS2_PLACEMENT_3D('',#349,#350,#351);
#349=CARTESIAN_POINT('',(66.,0.,0.));
#350=DIRECTION('',(1.,-0.,-0.));
#351=DIRECTION('',(0.,0.,1.));
ENDSEC;
END-ISO-10303-21;
